Quarashi - Baseline Chords & Tabs

 

Baseline Chords & Tabs

Quarashi Chords & Tabs

Version: 1 Type: Tab 2 ratings
1 star 2 stars 3 stars 4 stars 5 stars
comments

Baseline Tab

Song= Baseline
Band= Quarashi
Album= Mr. Jinx
Tabber= Dumpy The Destroyer
Tuning = Drop D (DADgbe)

x = muted
 = slide
PM = palm mute wherever indicated
() = harmonics


Intro
Clean Guitar
e|----------------------------------------------------------------------|
b|-5-------7-------6-------7---6----------------------------------------|
g|-5-------7-------5-------7---5-----------Repeat twice-----------------|
D|-7-------7-------7-------7---7----------------------------------------|
A|----------------------------------------------------------------------|
D|----------------------------------------------------------------------|


Verse
Distorted Guitar
e|----------------------------------------------------------------------|
b|----------------------------------------------------------------------|
g|----------------------------------------------------------------------|
D|--x-x-0--xx-----------------------------------------------------------|
A|--x-x-0--xx----This is done randomly----------------------------------|
D|--x-x-0--xx-----------------------------------------------------------|

[ Tab from: http://www.guitartabs.cc/tabs/q/quarashi/baseline_tab.html ]
Verse part 2                                                   
e|----------------------------------------------------------------------|
b|----------------------------------------------------------------------|
g|----------------------------------------------------------------------|
D|----------------------------------------------------------------------|
A|------7-------7--------7-------7--------------------------------------|
D|--7-7-----7-7-----7-7------7-7----------------------------------------|


Chorus
Distorted Guitar
e|----------------------------------------------------------------------|
b|----------------------------------------------------------------------|
g|----------------------------------------------------------------------|
D|-2\--xx-x-xx-x-xx-(2)-2-5--2-6--2-5--6--5--3--------------------------|
A|-2\--xx-x-xx-x-xx-(2)-2-5--2-6--2-5--6--5--3--------------------------|
D|-2\--xx-x-xx-x-xx-(2)-2-5--2-6--2-5--6--5--3--------------------------|


Interlude Part 1
Distorted Guitar
e|-----------------------|
b|-----------------------|
g|-----------------------|
D|-----------------------|
A|-----------------------|
D|--/7-------------------|


Interlude Part 2
Clean Guitar
e|----------------------------------------------------------------------|
b|-5-------7-------6-------7---6----------------------------------------|
g|-5-------7-------5-------7---5-----------Repeat twice-----------------|
D|-7-------7-------7-------7---7----------------------------------------|
A|----------------------------------------------------------------------|
D|----------------------------------------------------------------------|


End With This
e|-----------------------|
b|-----------------------|
g|-----------------------|
D|--2\-------------------|
A|--2\-------------------|
D|--2\-------------------|


SONG ORDER:
Bass
Intro
Verse
Verse P2
Chorus
Verse P2
Verse
Verse P2
Chorus
Interlude P1
Interlude P2
Chorus
Chorus
End

               ∂џмрч †нє ∂єς†ґΩчєг
Comments