Quagmire - Perfect Seduction Chords & Tabs

 

Perfect Seduction Chords & Tabs

Quagmire Chords & Tabs

Version: 1 Type: Tab 0 ratings
1 star 2 stars 3 stars 4 stars 5 stars
comments

Perfect Seduction Tab

   
                                PERFECT SEDUCTION
                             As recorded by Quagmire
                           (From the 2005 EP MUCHACHO)

Words and Music by Julian De Domenico, Ben Steil and Jason Hart
Transcribed by Sam Osborn 

Play song holding the bar chords.

          Bm                    A                    G                   F#
      7 9 9 7 7 7          5 7 7 6 5 5          3 5 5 4 3 3          2 4 4 3 2 2

   Intro
    Bm                       A                      G
   4/4
    Gtr I
||--7--9-7--10--10-10--7---|-5--7-5--9--9-10--9---|-3--5-3--7--7-5--3-|
||o-7--7-7---7---7--7--7---|-5--5-5--5--5--5--5---|-3--3-3--3--3-3--3-|
||-------------------------|----------------------|-------------------|
||-------------------------|----------------------|-------------------|
||o------------------------|----------------------|-------------------|
||-------------------------|----------------------|-------------------|


  F#
 4/4
|-2--2-3-2--2-(2)-3-|-2-0-2-0---0-----|-----------||
|-------------------|---------3---3-2-|-3-2-0----o||
|-------------------|-----------------|-----------||
|-------------------|-----------------|-----------||
|-------------------|-----------------|----------o||
|-------------------|-----------------|-----------||


   Verse
    Bm                        A                      G
||--7--9-7--10--10-10--7----|-5--7-5--9--9-10--9---|-3--5-3--7--7-5--3-|
||o-7--7-7---7---7--7--7----|-5--5-5--5--5--5--5---|-3--3-3--3--3-3--3-|
||--------------------------|----------------------|-------------------|
||--------------------------|----------------------|-------------------|
||o-------------------------|----------------------|-------------------|
||--------------------------|----------------------|-------------------|


  F#
|-2--2-3-2--2-(2)-3-|-2-0-2-0---0-----|-----------||
|-------------------|---------3---3-2-|-3-2-0----o||
|-------------------|-----------------|-----------||
|-------------------|-----------------|-----------||
|-------------------|-----------------|----------o||
|-------------------|-----------------|-----------||


 Interlude
 4/4
  Gtr I
|-7----7-9-10-9-7-9-5----|-5-7-9-7-5-7-3-------|-3-5-7-5-3-6----|
|------------------------|---------------------|----------------|
|------------------------|---------------------|----------------|
|------------------------|---------------------|----------------|
|------------------------|---------------------|----------------|
|------------------------|---------------------|----------------|


|-2--2-3-2--2-2-3-|-2-0-2-0---0-----|----------|
|-----------------|---------3---3-2-|-3-2-0----|
|-----------------|-----------------|----------|
|-----------------|-----------------|----------|
|-----------------|-----------------|----------|
|-----------------|-----------------|----------|


   Verse
||--7--9-7--10--10-10--7----|-5--7-5--9--9-10--9---|-3--5-3--7--7-5--3-|
||o-7--7-7---7---7--7--7----|-5--5-5--5--5--5--5---|-3--3-3--3--3-3--3-|
||--------------------------|----------------------|-------------------|
||--------------------------|----------------------|-------------------|
||o-------------------------|----------------------|-------------------|
||--------------------------|----------------------|-------------------|


|-2--2-3-2--2-2-3-|-2-0-2-0---0-----|-----------||
|-----------------|---------3---3-2-|-3-2-0----o||
|-----------------|-----------------|-----------||
|-----------------|-----------------|-----------||
|-----------------|-----------------|----------o||
|-----------------|-----------------|-----------||


   Interlude
||--7----7-9-10-9-7-9-5----|-5-7-9-7-5-7-3-------|-3-5-7-5-3-6----|
||o------------------------|---------------------|----------------|
||-------------------------|---------------------|----------------|
||-------------------------|---------------------|----------------|
||o------------------------|---------------------|----------------|
||-------------------------|---------------------|----------------|


|-2--2-3-2--2-2-3-|-2-0-2-0---0-----|-----------||
|-----------------|---------3---3-2-|-3-2-0----o||
|-----------------|-----------------|-----------||
|-----------------|-----------------|-----------||
|-----------------|-----------------|----------o||
|-----------------|-----------------|-----------||

[ Tab from: http://www.guitartabs.cc/tabs/q/quagmire/perfect_seduction_tab.html ]
 Bridge
|-3--5-3-----5--7-5-------|---5--7-5----2--3-2----|---3--5-3-----3--5-3-|
|-3--3-3-----5--5-5-------|---5--5-5----3--3-3----|---3--3-3-----3--3-3-|
|-------------------------|-----------------------|---------------------|
|-------------------------|-----------------------|---------------------|
|-------------------------|-----------------------|---------------------|
|-------------------------|-----------------------|---------------------|


|-2--2-3-2--2-2-3--|-2-0-2-0---0--------|----------|
|------------------|---------3---3-2----|-3-2-0----|
|------------------|--------------------|----------|
|------------------|--------------------|----------|
|------------------|--------------------|----------|
|------------------|--------------------|----------|


   Verse
||--7--9-7--10--10-10--7-----|-5--7-5--9--9-10--9---|-3--5-3--7--7-5--3---|
||o-7--7-7---7---7--7--7-----|-5--5-5--5--5--5--5---|-3--3-3--3--3-3--3---|
||---------------------------|----------------------|---------------------|
||---------------------------|----------------------|---------------------|
||o--------------------------|----------------------|---------------------|
||---------------------------|----------------------|---------------------|


|-2--2-3-2--2-2-3-|-2-0-2-0---0---|-------------||
|-----------------|---------3---3-|-2-3-2-0----o||
|-----------------|---------------|-------------||
|-----------------|---------------|-------------||
|-----------------|---------------|------------o||
|-----------------|---------------|-------------||


 Interlude
|-7----7-9-10-9-7-9-5-----|-5-7-9-7-5-7-3-----|-3-5-7-5-3-6----|
|-------------------------|-------------------|----------------|
|-------------------------|-------------------|----------------|
|-------------------------|-------------------|----------------|
|-------------------------|-------------------|----------------|
|-------------------------|-------------------|----------------|


   Verse
||--7--9-7--10--10-10--7-----|-5--7-5--9--9-10--9---|-3--5-3--7--7-5--3---|
||o-7--7-7---7---7--7--7-----|-5--5-5--5--5--5--5---|-3--3-3--3--3-3--3---|
||---------------------------|----------------------|---------------------|
||---------------------------|----------------------|---------------------|
||o--------------------------|----------------------|---------------------|
||---------------------------|----------------------|---------------------|


|-2--2-3-2--2-2-3--|-2-0-2-0---0------|-----------||
|------------------|---------3---3-2--|-3-2-0----o||
|------------------|------------------|-----------||
|------------------|------------------|-----------||
|------------------|------------------|----------o||
|------------------|------------------|-----------||


 Outro
|-7--9-7--10--10-10--7---|-5--7-5--9--9-10--9---|-3--5-3--7--7-5--3-|
|-7--7-7---7---7--7--7---|-5--5-5--5--5--5--5---|-3--3-3--3--3-3--3-|
|------------------------|----------------------|-------------------|
|------------------------|----------------------|-------------------|
|------------------------|----------------------|-------------------|
|------------------------|----------------------|-------------------|


|-2--2-3-2--2-2-3-|-2-0-2-0---0------|----------|
|-----------------|---------3---3-2--|-3-2-0----|
|-----------------|------------------|----------|
|-----------------|------------------|----------|
|-----------------|------------------|----------|
|-----------------|------------------|----------|


|-7--9-7--10--10-10--7---|-5--7-5--9--9-10--9---|-3--5-3--7--7-5--3-|
|-7--7-7---7---7--7--7---|-5--5-5--5--5--5--5---|-3--3-3--3--3-3--3-|
|------------------------|----------------------|-------------------|
|------------------------|----------------------|-------------------|
|------------------------|----------------------|-------------------|
|------------------------|----------------------|-------------------|


  H.=H
|-2--2-3-2--2-2-3-------|-2-0-2-0---0------------|----------------|------*|
|-----------------------|---------3---3-2--------|-3-2-0-(0)------|-(0)--*|
|-----------------------|------------------------|----------------|------*|
|-----------------------|------------------------|----------------|------*|
|-----------------------|------------------------|----------------|------*|
|-----------------------|------------------------|----------------|------*|



***************************************************************************************
* Generated using Power Tab Editor by Brad Larsen - http://powertab.guitarnetwork.org *
***************************************************************************************
Comments