Qbo - No Mas Chords & Tabs

 

No Mas Chords & Tabs

Qbo Chords & Tabs

Version: 5 Type: Tab 0 ratings
1 star 2 stars 3 stars 4 stars 5 stars
comments

No Mas Tab

QBO - No mas

Intro:

e|--------------------------------------------------------------------------|
B|--------------------------------------------------------------------------|
G|--------------------------------------------------------------------------|
D|-2222-2222-22-2222-2222-------2222-2222-22-2222-2222----------------------|
A|--------------------------------------------------------------------------|
E|-------------------------0----------------------------0-------------------|


e|--------------------------------------------------------------------------|
B|--------------------------7*--7*------------------------------------------|
G|----------------------------7*--------------------------------------------|
D|--2222-2222-22-2222-2222--------------------------------------------------|
A|--2222-2222-22-2222-2222--------------------------------------------------|
E|--0000-0000-00-0000-0000--------------------------------------------------|

Verso:
[ Tab from: http://www.guitartabs.cc/tabs/q/qbo/no_mas_tab_ver_5.html ]
e|---10---8-----------------------------------------------------------------|
B|-----------10-------------------------------------------------------------|
G|---------------10--12-12--------------------------------------------------|
D|--------------------------------------------------------------------------|
A|--------------------------------------------------------------------------|
E|--------------------------------------------------------------------------|

Coro:

e|-------------------------------------------3------3------3------3---|
B -------------------------------------------3------3------3------3---|
G|-----------5-5-5-5-----------7-7-7-7-------0------0------0------0---|
D|--2-2-2-2--5-5-5-5--5-5-5-5--7-7-7-7------------------------0-0-----|
A|--2-2-2-2--3-3-3-3--5-5-5-5--5-5-5-5----------3-3-------------------|
E|--0-0-0-0-----------3-3-3-3------------0-0-----------3-3------------|

Fill 1 (despues del primer coro):

e|------------------------------------------------------------|
B|----11------------------------------------------------------|
G|---------12*------------------------------------------------|
D|-------------13---------------------------------------------|
A|------------------13~~~~------------------------------------|
E|------------------------------------------------------------|

Acerca de la tablatura:

~ Vibrato
* Armonico Natural

Saludos A el Sr. Pablo Narvaiz y a Snoopy.
A Marcela Tambien.

ATTE:
C. Alaněs Ruiz
Comments