Qbo - No Mas Chords & Tabs

 

No Mas Chords & Tabs

Qbo Chords & Tabs

Version: 1 Type: Tab 0 ratings
1 star 2 stars 3 stars 4 stars 5 stars
comments

No Mas Tab

   
qbo-no mas
tunning (DADGBE)
this is my version

intro (bass)

A --2222--2222--22-2222--2222------
D -----------------------------0--- (2 times)

guitar

e ---------------------------------
B -------------------------------4---4
G ------------------------------------
D ------------------------------------
A -2222--22-22--22---2222--22-22---2--
D ---------------------------------
  [palm mute ........................]

verse

e ---10---------------9---------------------------
B -----------------------10-----------------------
G ----------------------------11------7-7---------
D ------------------------------------------------
A ------------------------------------------------
D ------------------------------------------------

chorus part 1
    
    B     G     D     A
e ---------------------
B ---------------------
G --4-----------7------
D --4-----5-----7-----7
A --2-----5-----5-----7
D --------5-----------7
 (check the rythm)

chorus part 2
[ Tab from: http://www.guitartabs.cc/tabs/q/qbo/no_mas_tab.html ]
e -----------------------------------------
B -----------------------------------------
G -----------------------------------------
D --4--4--7----5--5--7---------7----7--7--7
A --2--2--5----5--5--5---------5----7--7--5
D -------------5--5-----0--0--------7--7---

(part1 and 2 of chorus is the same chorus)

verse 2 (same as verse 1)

before chorus 2

e ------------------------------------------------------------
B ------------------------------------------------------------
G ------------------------------------------------------------
D ------------------------------------------------------------
A --2222--22-22-22--2222-22-22-2^5--2222-22-22-22-2222-22-22-2
D ------------------------------------------------------------

after that comes the chorus (same as first)

bridge

bass

D --99999999--55555555--00000000--77777777

then goes to:

B G D A

and chorus part 2

at the end part goes the chorus a couple of times

the song ends in the bass as the bridge.

and its all.

thank you. please listen the song.listen qbo, you really gonna love them.
Comments