Puya - Fake Chords & Tabs

 

Fake Chords & Tabs

Puya Chords & Tabs

Version: 2 Type: Bass Tab 0 ratings
1 star 2 stars 3 stars 4 stars 5 stars
comments

Fake Bass Tab

   
Artist: Puya
song: Fake

this song can be played on a 4 string but the chorus sounds better on a 5 string
so if you got a 5 string than play the reg notes but 4 stringers play the notes in ( )

INTRO
G|-------------------------|
D|-------------------------|
A|-------------------------|
E|-2-0-2-R-2-0-2-R-5-5-5-5-|
[ Tab from: http://www.guitartabs.cc/tabs/p/puya/fake_btab_ver_2.html ]
VERSE
G|---------------|
D|---------------|
A|---------------|
E|-0-R-0-3-2-3-R-|

CHORUS
G|------------------|
D|------------------|
A|------------------|
E|(0-0-2-r-0-2-0-2-)|
B|-5-5-7-r-5-7-5-7/-|

INTERLUDE
now this is played slap style so you slap the (B)E and A strings with your thumb,
and pop the G and D with your index and/or middle finger(s)
G|---------------------------|
D|------5-5-----------------|
A|-----------------5-3---5-2-|
E|-0-r-3-----r-0-3-----------|

Comments