Purusam - Hourglass Chords & Tabs

 

Hourglass Chords & Tabs

Purusam Chords & Tabs

Version: 1 Type: Tab 0 ratings
1 star 2 stars 3 stars 4 stars 5 stars
comments

Hourglass Tab

===============================================
=PURUSAM - HOURGLASS From Daybreak Chronicles)=
===============================================

Tab By: rockapak
email: rockapak@yahoo.com

Tune Down 1/2 to step  to Eb

*****************
*Johnny's Guitar*
*****************

E---------------------------------------------------------------------------------|
B---------------------------------------------------------------------------------|
G---------------------------------------------------------------------------------|
D--11~----------------7-9-11-9-7------9~~-------------7-7-9-11~--/7--9------------|
A---9~------8-8-8-8-8------------8----------6-6-6-6-6------------/5--7---9~-------|
E---------------------------------------------------------------------------------|
             pm...................|          pm............|    

E---------------------------------------------------------------------------------|
B------------------------------------------------------------|--------------------|
G------------------------------------------------------------|*-------------------|
D-----------7-9-11-9-----9~~------------7-7-9-11~~--/7--9----|*-------------------|
A-8-8-8-8-8----------8--------6-6-6-6-6-------------/5--6----|--7~~-----6-6-6-6-6-|
E---------------------------------------------------------------------------------|
   pm.................|        pm............|			        pm........

						  x2   Verse 1
E-------------------------------------------------------------------------------4-|
B----------------------------------------------------|---------5-7-8--5-------5---|
G---------------------------------------------------*|-------5----------5---6-----|
D-5-7-9-7-5-----7~~-------------5-5-7-9~---/5--7----*|----------------------------|
A-----------6---------4-4-4-4-4------------/3--5-----|----------------------------|
E---------------------------------------------------------------------------------|
 ............|         pm............|               			     pm   

E-7-4-----------12p10p8---------------------------4-7-4---------------12~~--------|
B-----5-----5-9---------10~------5-7-8--5-------5-------5-------5-9--A.H.------5-7|
G---------7--------------------5----------5---6-----------6---7--------------5----|
D---------------------------------------------------------------------------------|
A---------------------------------------------------------------------------------|
E---------------------------------------------------------------------------------|

E--------------4-7-4-------------12p10p8--------12-------A.H.---------------------|
B-8--5-------5-------5-------5-9---------10--12----12-10--8~~------5-7-8--5-------|
G------5---6-----------6---7-------------------------------------5----------5---6-|
D---------------------------------------------------------------------------------|
A---------------------------------------------------------------------------------|
E---------------------------------------------------------------------------------|

				       Chorus
E---4-7-4-------------------------------8-7-5-0--8-7-5-0--8-7-5-0--8-7-5-0--8-7-5-|
B-5-------5---------5----------------|--------------------------------------------|
G-----------6-----5---5--------------|*-------------------------------------------|
D---------------7-------7-5-A.H.-----|*-------------------------------------------|
A----------------------------7~~-----|--------------------------------------------|
E---------------------------------------------------------------------------------|

E---8-7-5---8-7-5---8-7-5----8-7-5---8-7-5---8-7-5---8-7-5------5-8-/13-12--------|
B-6-------6-------6-------6-----------------------------------6------------13-8-6-|
G----------------------------------7-------7-------7-------7----------------------|
D---------------------------------------------------------------------------------|
A---------------------------------------------------------------------------------|
E---------------------------------------------------------------------------------|

		      x2
E-----/13-12----------------12~~------------10b(12)-10b(12)-r10----------hold-bend|
B-5~---------13-8-6-5~---|---------------12---------------------12-10--10b(12)-12-|
G-----------------------*|-------------14-----------------------------------------|
D-----------------------*|-----------14-------------------------------------------|
A------------------------|--------------------------------------------------------|
E---------------------------------------------------------------------------------|

	               Verse 2	
E------------------------------------------4-7-4-------------12p10p8--------12----|
B-12-12-12-r10-8~~---|----5-7-8--5-------5-------5-------5-9---------10--12----12-|
G--------------------|--5----------5---6-----------6---7--------------------------|
D--------------------|------------------------------------------------------------|
A--------------------|------------------------------------------------------------|
E---------------------------------------------------------------------------------|

E----A.H.---------------------4-7-4-------------12-----------------------------4-7|
B-10--8~~-----5-7-8--5------5-------5-------7-9----9----------5-7-8--5-------5----|
G-----------5----------5--6-----------6---5-----------------5----------5---6------|
D-----------------------------------------------------9~~-------------------------|
A---------------------------------------------------------------------------------|
E---------------------------------------------------------------------------------|

E-4------------------A.H.----------------------4-7-4------------------------------|
B---5-------5-9-5-----5~~-----5-7-8--5-------5-------5-----5-----5-------8------8-|
G-----6---7-------7-7-------5----------5---6-----------6---7b(9)-7b(9)--10b(12)-10|
D---------------------------------------------------------------------------------|
A---------------------------------------------------------------------------------|
E---------------------------------------------------------------------------------|

	   Harmony Solo
E-------------------12-/15p12----------12h15-/19p15--------------------------15-17|
B--------|--------------------13----13--------------17--18-18-17-18-15-17-18------|
Gb(12)---|*-------9--------------14-----------------------------------------------|
D--------|*----10-----------------------------------------------------------------|
A--------|--12--------------------------------------------------------------------|
E---------------------------------------------------------------------------------|
	     pm....|										

		     x3
E-15-------15---------------------12-/15p12----------12h15-/19p15-----------------|
B----18-17----18-17-15--|-------------------13----13--------------17--18-18-17-18-|
G----------------------*|-------9--------------14---------------------------------|
D----------------------*|----10---------------------------------------------------|
A-----------------------|-12------------------------------------------------------|
E---------------------------------------------------------------------------------|
			  pm....|

E---------------------------------------------------------------------------------|
B-/20~~---|---8-8-8-12-8-10-8-12-8--8-8-8-12-8-10-8-12-8--7-7-7-10-7--7-7-7-10-7--|
G---------|*----------------------------------------------------------------------|
D---------|*----------------------------------------------------------------------|
A---------|-----------------------------------------------------------------------|
E---------------------------------------------------------------------------------|

E---------------------------------------------------------------------------------|
B-7-7-7-10-7--7-7-7-10-7--5-5-5-8-5-7-5-8-5--5-5-5-8-5-7-5-8-5--4h5p4h5p4h5p4h5-7-|
G---------------------------------------------------------------------------------|
D---------------------------------------------------------------------------------|
A---------------------------------------------------------------------------------|
E---------------------------------------------------------------------------------|

		       x2
E---------------------------------------------------------------------------------|
B-5-4---------------------|---8-8-8-12-8-10-8-12-8--8-8-8-12-8-12p10p8-10p8p7-5--|
G-----5-4----------------*|*------------------------------------------------------|
D---------7-5-4------7---*|*------------------------------------------------------|
A---------------7-6~------|-------------------------------------------------------|
E---------------------------------------------------------------------------------|

E---------------------------------------------------------------------------------|
B-7-7-7-10-7--7-7-7-10-7--7-7-7-10-7--10p8p7-8p7p5-4--5-5-5-8-5-7-5-8-5--5-5-5-8-|
G---------------------------------------------------------------------------------|
D---------------------------------------------------------------------------------|
A---------------------------------------------------------------------------------|
E---------------------------------------------------------------------------------|

							    x2   end Harmony Solo
E---------------------------------------------------------------------------------|
B-5-8p7p5-7p5p4-2--4h5p4h5p4h5p4h5-7-5-4-----------------------|------------------|
G----------------------------------------5-4-------------*----*|--4~--5~--4~------|
D--------------------------------------------7-5-4------*7*---*|------------------|
A--------------------------------------------------7-6~--*-----|--------------2~--|
E-----------------------------------------------------------------------------0~--|
 *=Play this ONLY the 1st time							

E-------------------------------4-7-4-------------12p10p8-------------------------|
B--------------5-7-8--5-------5-------5-------5-9---------10~----------5-7-8--5---|
G------------5----------5---6-----------6---7------------------------5----------5-|
D---------------------------------------------------------------------------------|
A---2-2~-------------------------------------------------------2~-----------------|
E---0-0~-------------------------------------------------------0~-----------------|

					      Verse 3
E-----4-7-4-----------------------------------------------------------4-7-4-------|
B---5-------5-----5-----5-----5-----5-------|--------5-7-8--5-------5-------5-----|
G-6-----------6---7b(9)-7b(9)-7b(9)-7b(9)---|------5----------5---6-----------6---|
D-------------------------------------------|-------------------------------------|
A-------------------------------------------|--2~---------------------------------|
E----------------------------------------------0~---------------------------------|

E-------12p10p8---------12--------------------------------4-7-4-------------------|
B---5-9---------10~--12----12-10-8~~-----5-7-8--5-------5-------5-------5-9-5-----|
G-7------------------------------------5----------5---6-----------6---7-------7---|
D-------------------------------------------------------------------------------7-|
A---------------------------------------------------------------------------------|
E---------------------------------------------------------------------------------|

		  x2
E-------------------------------------------------------10-12-13-12-10------------|
B--------|----------|--12~~----12b(13)r12-10h12~--12-13----------------13-12-10---|
G--------|--Chorus--|-----------------------------------------------------------13|
D----|----------|-------------------------------------------------------------|
A-------|----------|-------------------------------------------------------------|
E---------------------------------------------------------------------------------|

			Outro (Acoustic guitar)
E---------------------------------------------------------------------------------|
B----------------------|-2---2---1---1---1---1----|---6---6---6---6---4---4---4---|
G-10-9-----------------|---3---3---3---3---3---3--|*--6---6---6---6---5---5---5---|
D------12-10-9---------|--------------------------|*----4---4---4---4---4---4---4-|
A--------------12~~----|--------------------------|-------------------------------|
E---------------------------------------------------------------------------------|

E------6---6---6---6--------------------2---2---2---2---1---1---1---1-------------|
B-4----6---6---6---6---6---6---6---6----2---2---2---2---1---1---1---1----2---2---2|
G-5--------------------6---6---6---6---------------------------------------3---3--|
D---4----3---3---3---3---3---3---3---3----1---1---1---1---1---1---1---1-----------|
A---------------------------------------------------------------------------------|
E---------------------------------------------------------------------------------|

		     *x3*
E-------------------------||
B---2---1---1---1---1-----|| *=Start fade out on the
G-3---3---3---3---3---3--*||   3rd time.
D------------------------*||
A-------------------------||
E-------------------------||


-------------------------------------------------------------------------------------

*****************
*Mikael's Guitar*
*****************

Tune Down 1/2 to step to Eb
[ Tab from: http://www.guitartabs.cc/tabs/p/purusam/hourglass_tab.html ]
E---------------------------------------------------------------------------------|
B---------------------------------------------------------------------------------|
G---------------------------------------------------------------------------------|
D------------7-9-11-9-7----7~~-------------7-9-11-9-7----11~~--/7--9--------------|
A--9-9-9-9-9------------9--------7-7-7-7-7------------7--------/5--7----9-9-9-9-9-|
E---------------------------------------------------------------------------------|
    pm...................|	  pm...................|                 pm.......

E---------------------------------------------------------------------------------|
B--------------------------------------------------------------|------------------|
G--------------------------------------------------------------|*-----------------|
D-7-9-11-9-7----7~~------------7-9-11-9-7----11~~--/7--9-------|*-----------5-7-9-|
A------------9-------7-7-7-7-7------------7--------/5--6-------|--7-7-7-7-7-------|
E---------------------------------------------------------------------------------|
  ..........|         pm...................|			 pm.............

						  x2		  Verse 1
E---------------------------------------------------------------------------------|
B----------------------------------------------------|----------|-----------------|
G---------------------------------------------------*|----------|-----------------|
D-7-5-----5~~-------------5-7-9-7-5----9~~--/5--7---*|----------|-----------------|
A-----7---------5-5-5-5-5-----------5-------/3--5----|--2~------|--2~--------2~-|
E-------------------------------------------------------0~---------~--------~-|
 .....|          pm..................|				    

E---------------------------------------------------------------------------------|
B---------------------------------------------------------------------------------|
G---------------------------------------------------------------------------------|
D---------------------------------------------------------------------------------|
A------------------------2-2-------0/2-0/2--2-2-------0/2-0/2--2-2-------0/2-0/2--|
E-0-0-0-0-0-0-0-0-0-0----0-0-0-0-0-0-0-0-0--0-0-0-0-0-0-0-0-0--0-0-0-0-0-0-0-0-0--|
 pm..................|      pm....|            pm....|            pm....|

E---------------------------------------------------------------------------------|
B---------------------------------------------------------------------------------|
G---------------------------------------------------------------------------------|
D---------------------------------------------------------------------------------|
A--2-2------------------2-2-------0/2-0/2--2-2-------0/2-0/2--2-2-------0/2-0/2--2|
E--0-0-0-0-0-0-0-0-0----0-0-0-0-0-0-0-0-0--0-0-0-0-0-0-0-0-0--0-0-0-0-0-0-0-0-0--0|
      pm............|      pm....|            pm....|            pm....|

			   Chorus
E-------------------------------------------------------1--------3----3-----------|
B------------------------|--------5---------------------1--------3----3--------6/8|
G------------------------|--------5---------------------2--------4----4--------5/7|
D------------------------|--7-----7-------------3----------------5----5----3------|
A-2-------0/2-0/2--2----|--7-----7-------------3----------------5----5----3------|
E-0-0-0-0-0-0-0-0--0-------5----------5h7p5---1--1-1------1-1------------1------|
   pm....|					  pm..|    pm..|

E---------------------------------------------------------------------------------|
B6-------------------------------------------------------------------------------|
G5-------------------------------------------5-----------------5---------------5-|
D----3------2---------------------------------3-3-3-3-3-3-3-3-3-3-3-3-3-3-3-3-3-3-|
A----3-----0-0-0-0-0-0-0-0-0-0-0-0-0-0-0-0-0-------------------------------------|
E----1---------------------------------------------------------------------------|
             pm..............................| pm..............| pm............|

E---------------------------------------------------------------------------------|
B---------------------------------------------------------------------------------|
G-----------------------------------5---------5/7-----75-------------5-----------|
D-----------------------------------3-3-3-3-3-3/5-5-5-53-3-3-3-3-3-3-3-----------|
A-5-----------------------------------------------------------------------2~------|
E-3-3-3-3-3-3-3-3-3-3-3-3-3-3-3-3-3---------------------------------------0~------|
   pm..............................| pm.....|   pm...|   pm..........|

              Harmony Solo
E------------------------------------12-------------------------------------------|
B-----------|----------10-12-10---10----10---10-12-10----------------------8------|
G--Verse-2--|*-------9----------9----------9----------9---7-10-9-10-7-9-10---10-9-|
D-----------|*----10--------------------------------------------------------------|
A-----------|--12-----------------------------------------------------------------|
E---------------------------------------------------------------------------------|

	    x2    
E---------------------------------------------------------------------------------|
B--------------|----------------------------------------|-------------------------|
G-7-10-9-7-5--*|----------------------------------------|*--9-9-9-12-9-11-9-12-9--|
D-------------*|------------------------------/4--5--7--|*------------------------|
A--------------|--12~----125~---0~----0/8~---/2--3--5--|-------------------------|
E---------------------------------------------------------------------------------|

E---------------------------------------------------------------------------------|
B---------------------------------------------------------------------------------|
G-9-9-9-12-9-11-9-12-9---7-7-7-12-7--7-7-7-12-7--7-7-7-12-7--7-7-7-12-7---5-5-5-9-|
D---------------------------------------------------------------------------------|
A---------------------------------------------------------------------------------|
E---------------------------------------------------------------------------------|

								       x2
E---------------------------------------------------------------------------------|
B-------------------------------------------------------------------------|-------|
G-5-7-5-9-5--5-5-5-9-5-7-5-9-5--4h5p4h5p4h5p4h5-7-5-4--------------------*|*--9-9-|
D-----------------------------------------------------7-5-4----------5---*|*------|
A-----------------------------------------------------------7-5-3---------|-------|
E-----------------------------------------------------------------7---------------|

E---------------------------------------------------------------------------------|
B---------------------------------------------------------------------------------|
G-9-12-9-11-9-12-9--9-9-9-12-9-12p11p9-11p9p7-5--7-7-7-12-7--7-7-7-12-7--7-7-7-12-|
D---------------------------------------------------------------------------------|
A---------------------------------------------------------------------------------|
E---------------------------------------------------------------------------------|

E---------------------------------------------------------------------------------|
B---------------------------------------------------------------------------------|
G-11p9p7-9p7p5-4--5-5-5-9-5-7-5-9-5--5-5-5-9-5-9p5p7-7p5p4-2--4h5p4h5p4h5p4h5--7-5|
D---------------------------------------------------------------------------------|
A---------------------------------------------------------------------------------|
E---------------------------------------------------------------------------------|

		      x2   end Harmony Solo
E---------------------------------------------------------------------------------|
B------------------------|--------------------------------------------------------|
G-4----------------*----*|--------------------------------------------------------|
D---7-5-4---------*5*---*|---5------9---------------------------------------------|
A---------7-5-3----*-----|------6---------2~-----------2-2~------2-2~~---x\//---|
E---------------7-------------------------0~-----------0-0~------0-0~~---x\//---|
 *=Play this ONLY the 1st time

  Verse 3
E---------------------------------------------------------------------------------|
B---------------------------------------------------------------------------------|
G---------------------------------------------------------------------------------|
D---------------------------------------------------------------------------------|
A--2-2-------0/2-0/2--2-2-------0/2-0/2--2-2-------0/2-0/2--2-2-----------------2-|
E--0-0-0-0-0-0-0-0-0--0-0-0-0-0-0-0-0-0--0-0-0-0-0-0-0-0-0--0-0-0-0-0-0-0-0-0---0-|
      pm....|            pm....|            pm....|            pm............|

									    Chorus
E---------------------------------------------------------------------------------|
B--------------------------------------------------------------------------|------|
G--------------------------------------------------------------------------|------|
D--------------------------------------------------------------------------|-2----|
A-2-------0/2-0/2--2-2-------0/2-0/2--2-2-------0/2-0/2--2-2-------0/2-0/2-|-0-0-0|
E-0-0-0-0-0-0-0-0--0-0-0-0-0-0-0-0-0--0-0-0-0-0-0-0-0-0--0-0-0-0-0-0-0-0-0--------|
   pm....|            pm....|            pm....|            pm....|	      pm..

E---------------------------------------------------------------------------------|
B---------------------------------------------------------------------------------|
G-------------------------5-------------------------------5-----------------------|
D-------------------------3-3-3-3-3-3-3-3-3-3-3-3-3-3-3-3-3-----------------------|
A-0-0-0-0-0-0-0-0-0-0-0-0-------------------------------------5-------------------|
E-------------------------------------------------------------3-3-3-3-3-3-3-3-3-3-|
 ........................| pm............................|     pm.................
 
E---------------------------------------------------------------------------------|
B---------------------------------------------------------------------------------|
G-----------5---------5/7-----75--5-5-5-5-5-5-5-5--------------------------------|
D-----------3-3-3-3-3-3/5-5-5-53--3-3-3-3-3-3-3-3----2---------------------------|
A-----------------------------------------------------0-0-0-0-0-0-0-0-0-0-0-0-0-0-|
E-3-3-3-3-3-----------------------------------------------------------------------|
 ..........| pm......|   pm..|  		       pm........................|

E---------------------------------------------------------------------------------|
B---------------------------------------------------------------------------------|
G------5-----------------5---------------5--------------------------------5-------|
D------3-3-3-3-3-3-3-3-3-3-3-3-3-3-3-3-3-3--------------------------------3-3-3-3-|
A-0-0--------------------------------------5--------------------------------------|
E------------------------------------------3-3-3-3-3-3-3-3-3-3-3-3-3-3-3----------|
 pm..|  pm..............| pm............|   pm..........................|  pm.....

E---------------------------------------------------------------------------------|
B----------------------------------------------------------------------5----------|
G---5/7-----75--5-5-5-5-5-5-5-5---------------------------------------3-3-3-3-3-3|
D-3-3/5-5-5-53--3-3-3-3-3-3-3-3----2---------------------------------------------|
A-----------------------------------0-0-0-0-0-0-0-0-0-0-0-0-0-0-0-0-0-------------|
E---------------------------------------------------------------------------------|
 ..|   pm..| 			     pm...............................| pm........

E---------------------------------------------------------------------------------|
B---------------------------------------------------------------------------------|
G-------------------------5-----------------------------------5---------5/7-----7|
D-3-3-3-3-3-3-3-3-3-3-3-3-3-----------------------------------3-3-3-3-3-3/5-5-5-5|
A----------------------------5----------------------------------------------------|
E----------------------------3-3-3-3-3-3-3-3-3-3-3-3-3-3-3-3----------------------|
 ........................|    pm............................|  pm......|   pm..|

E---------------------------------------------------------------------------------|
B---------------------------------------------------------------------------------|
G-5-5-5-5-5-5-5-5-------------------------------------5---------------------------|
D-3-3-3-3-3-3-3-3----2--------------------------------3-3-3-3-3-3-3-3-3-3-3-3-3-3-|
A--------------------0-0-0-0-0-0-0-0-0-0-0-0-0-0-0-0------------------------------|
E---------------------------------------------------------------------------------|
 		      pm............................|  pm.........................

E---------------------------------------------------------------------------------|
B---------------------------------------------------------------------------------|
G---------------------------------------5---------5/7-----75---------------------|
D-3-3-----------------------------------3-3-3-3-3-3/5-5-5-53-3-3-3-3-3-3-3-3-----|
A------5--------------------------------------------------------------------------|
E------3-3-3-3-3-3-3-3-3-3-3-3-3-3-3-3--------------------------------------------|
 ....|  pm............................|  pm......|   pm..|   pm..............|

                Outro (Acoustic Guitar)    
E------------------------------------------||
B-------------|----------------------------||
G-------------|--Play-the-same-as-Johnny---|| end
D-------------|----------------------------||
A--7~---------|----------------------------||
E--5~--------------------------------------||

Comments