Purple Gekko - Standing On The Front Line Chords & Tabs

 

Standing On The Front Line Chords & Tabs

Purple Gekko Chords & Tabs

Version: 2 Type: Bass Tab 0 ratings
1 star 2 stars 3 stars 4 stars 5 stars
comments

Standing On The Front Line Bass Tab

STANDING ON THE FRONT LINE
by PURPLE GEKKO
---------------
Hollow Records

Intro
----------------------------------
----------------------------------
----------------------------5-----
--5---------0--------3------------

------14----------14----------14-------------------14----
12-15----------------15-12-15----------------------------
---------14-17-14----------------14-17-14-12h14p12-------
---------------------------------------------------------

------------13----------------------13----14-----
---------14----14----------------14----14----16--
---11-14----------14-11----11-14-----------------
12----------------------12-----------------------

------------------------------------------------
-------------17-----------------17--------------
----14-17-14----17-14h15p14--------17-14--------
-15-------------------------15-----------15-----

-------------11------------------------------------
-------12-------12----12--------12----12-12-10-9---
----12----12-------12-------12-----12--------------
-10----------------------10------------------------

---------14-17-14----------------14-17h19p17-----------------
------14----------14----------14-------------19-17h19p17-----
12-15----------------15-12-15----------------------------19--
-------------------------------------------------------------

------------13----------------------13----14-----
---------14----14----------------14----14----14--
---11-14----------14-11----11-14-----------------
12----------------------12-----------------------

------------------------------------------------
-------------17-----------------17--------------
----14-17-14----17-14h15p14--------17-14--------
-15-------------------------15-----------15-----


-------------------------------------------------11
-------12-------12----12--------12----12-12-10-9---
----12----12-------12-------12-----12--------------
-10----------------------10------------------------

-----------5-7-7-----------5-7-5----
-------5-7-------------5-7-------7--
-5-7-8-----------5-7-8--------------

----------------------------------------
--------------0-2-------------0/2-------
-------0-2-4------------0-2-4-----2-----
-0-2-4------------0-2-4-----------------

-------------------------------------
---------0-2-4-5---------------------
---0-2-3-------------0-2-3-5-7-9-10--
-3----------------3------------------

-----------------------------
-------12-------12----12-----
----12----12-------12--------
-10----------------------10--

CHORUS
----SUPER FAST


------------------------------------------
-----7-7-----7-7-----7-7-----7-7-----7-7--
------------------------------------------
-5-5-----5-5-----5-5-----5-5-----5-5------

---------------------8-8-----9-9-----9-9-----9-9-
-----7-7-----7-7---------------------------------
-----------------6-6-----7-7-----7-7-----7-7-----
-5-5-----5-5-------------------------------------

-----9-9-----9-9-----9-9-----9-9-----11-11---
---------------------------------------------
-7-7-----7-7-----7-7-----7-7-----9-9---------
---------------------------------------------

------12-12-------12-12------12-12-------12-12-------12-12-
-----------------------------------------------------------
10-10-------10-10------10-10-------10-10-------10-10-------
-----------------------------------------------------------

------12-12-------12-12------12-12-----------
---------------------------------------11-11-
10-10-------10-10------10-10-----------------
-----------------------------------9-9-------

-------------------------------------------------
-------12-12------12-12-------12-12-------12-12--
-------------------------------------------------
-10-10------10-10-------10-10-------10-10--------


---------------------------------------
-------12-12----10-10-----9-9-----5-5--
---------------------------------------
-10-10------8-8-------7-7-----3-3------

_______________________________________

------------------------------------------
-----7-7-----7-7-----7-7-----7-7-----7-7--
------------------------------------------
-5-5-----5-5-----5-5-----5-5-----5-5------

-------------------------------------9-9-----9-9-----9-9-
-----7-7-----7-7-----7-7-----7-7---------------------------
---------------------------------7-7-----7-7-----7-7-----
-5-5-----5-5-----5-5-----5-5-------------------------------

-----9-9-----9-9-----9-9-----9-9-----11-11---
---------------------------------------------
-7-7-----7-7-----7-7-----7-7-----9-9---------
---------------------------------------------

------12-12-------12-12------12-12-------12-12-------12-12-
-----------------------------------------------------------
10-10-------10-10------10-10-------10-10-------10-10-------
-----------------------------------------------------------

------12-12-------12-12------12-12-----------
---------------------------------------11-11-
10-10-------10-10------10-10-----------------
-----------------------------------9-9-------

-------------------------------------------------
-------12-12------12-12-------12-12-------12-12--
-------------------------------------------------
-10-10------10-10-------10-10-------10-10--------


----------------9-9-----10-10-----11---
-------12-12---------------------------
------------7-7-----8-8-------9-9------
-10-10---------------------------------
_______________________________________
---------------------------------------

VERSE TWO

-------------------------------------------14---
-------------14----------------------14-------14
-12-15-14-15----15-14-15-12-15-14-15----15------
------------------------------------------------

---------------------------------------------------------
-------------14------------------------------------------
----11-14-11----14-12-11-------11-12-11-14-12-12h12p11---
-12----------------------12-12-------------------------12

-------------------------------------------------16h17p16----------
----------------------------------------------------------17-------
----14-15-14-17-15-14h15p14----17-15-14h15p14----------------17----
-15-------------------------15----------------15----------------15-

-------------11---------------------11----------
-------12-14----12------------12-14----12-------
----12-------------12-9----12-------------12-9--
-10---------------------10----------------------


-------------14------------------------------------
---------------14----------------------------------
-12-15-14-15------14h15p14-12-15-14-15-14-12-15-14-
---------------------------------------------------

---------------------------------------------------------
-------------14------------------------------------------
----11-14-11----14-12-11-------11-12-11-14-12-11h12p11---
-12----------------------12-12-------------------------12
[ Tab from: http://www.guitartabs.cc/tabs/p/purple_gekko/standing_on_the_front_line_btab_ver_2.html ]
-------------------------------------------------16h17p16----------
----------------------------------------------------------17-------
----14-15-14-17-15-14h15p14----17-15-14h15p14----------------17----
-15-------------------------15----------------15----------------15-

-------------11---------------
-------12-14----12------------
----12-------------12-9-------
-10---------------------10----

________________________________
--------------------------------
CHORUS II
---------

------------------------------------------
-----7-7-----7-7-----7-7-----7-7-----7-7--
------------------------------------------
-5-5-----5-5-----5-5-----5-5-----5-5------

---------------------10-10-----9-9-----9-9-----9-9-
-----9-9----10-10-----------------------------------------
-----------------8-8-------7-7-----7-7-----7-7-----
-7-7-----8-8---------------------------------------------

-----9-9-----9-9----11-11----12-12---11-11---
---------------------------------------------
-7-7-----7-7-----9-9----10-10----9-9---------
---------------------------------------------

------12-12-------12-12------12-12-------12-12-------12-12-
-----------------------------------------------------------
10-10-------10-10------10-10-------10-10-------10-10-------
-----------------------------------------------------------

-----------------------------
----9-9-------10-10----11-11-
-----------------------------
7-7-------8-8------9-9-------

-------------------------------------------------
-------12-12------12-12-------12-12-------12-12--
-------------------------------------------------
-10-10------10-10-------10-10-------10-10--------


---------------------------------------
-------12-12----10-10-----9-9-----5-5--
---------------------------------------
-10-10------8-8-------7-7-----3-3------

_______________________________________

------------------------------------------
-----7-7-----7-7-----7-7-----7-7-----7-7--
------------------------------------------
-5-5-----5-5-----5-5-----5-5-----5-5------

---------------------10-10-----9-9-----9-9-----9-9-
-----9-9----10-10-----------------------------------------
-----------------8-8-------7-7-----7-7-----7-7-----
-7-7-----8-8---------------------------------------------

-----9-9-----9-9----11-11----12-12---11-11---
---------------------------------------------
-7-7-----7-7-----9-9----10-10----9-9---------
---------------------------------------------

------12-12-------12-12------12-12-------12-12-------12-12-
-----------------------------------------------------------
10-10-------10-10------10-10-------10-10-------10-10-------
-----------------------------------------------------------

-----------------------------
----9-9-------10-10----11-11-
-----------------------------
7-7-------8-8------9-9-------

-------------------------------------------------
-------12-12------12-12-------12-12-------12-12--
-------------------------------------------------
-10-10------10-10-------10-10-------10-10--------

----------------9-9-----10-10-----11---
-------12-12---------------------------
------------7-7-----8-8-------9-9------
-10-10---------------------------------
___________________________________
-----------------------------------
BRIDGE

---------------------------------------------------------------------
---5---------------9---------7-----------10--10/12\10-9--------------
-3-------3-3-5-7-----7-7-6-5-------5-7-8----------------12-10--------
-----------------7---------------5----------------------------12-10--

-------------------------------------------------------------10-10-13-
-------------------------------7-----------------------10-10----------
----0----3-5----7-----7-7-6-5------5--7-8-8-8-8--11-11----------------
8-3----3------7---0---------------------------------------------------

____________________________________
------------------------------------
CHORUS

------------------------------------------
-----7-7-----7-7-----7-7-----7-7-----7-7--
------------------------------------------
-5-5-----5-5-----5-5-----5-5-----5-5------

---------------------8-8-----9-9-----9-9-----9-9-
-----7-7-----7-7---------------------------------
-----------------6-6-----7-7-----7-7-----7-7-----
-5-5-----5-5-------------------------------------

-----9-9-----9-9-----9-9-----9-9-----11-11---
---------------------------------------------
-7-7-----7-7-----7-7-----7-7-----9-9---------
---------------------------------------------

------12-12-------12-12------12-12-------12-12-------12-12-
-----------------------------------------------------------
10-10-------10-10------10-10-------10-10-------10-10-------
-----------------------------------------------------------

------12-12-------12-12-------------
---------------------------11-11----
10-10-------10-10-------------------
-----------------------9-9----------

-------------------------------------------------
-------12-12------12-12-------12-12-------12-12--
-------------------------------------------------
-10-10------10-10-------10-10-------10-10--------


---------------------------------------
-------12-12----10-10-----9-9-----5-5--
---------------------------------------
-10-10------8-8-------7-7-----3-3------

_______________________________________

------------------------------------------
-----7-7-----7-7-----7-7-----7-7-----7-7--
------------------------------------------
-5-5-----5-5-----5-5-----5-5-----5-5------

---------------------------------------------------------
-----7-7-----5-5-----3-3-----0h2-----0h2-----0h2-----0h2-
---------------------------------------------------------
-5-5-----3-3-----x-1-----x-0-----x-0-----x-0-----x-0-----

------------------------------------11-11--
-----9-9-----10-10-------12-12-------------
--------------------------------9-9--------
-7-7-----8-8-------10-10-------------------

------12-12-------12-12------12-12-------12-12-------12-12-
-----------------------------------------------------------
10-10-------10-10------10-10-------10-10-------10-10-------
-----------------------------------------------------------

------12-12-------12-12-----------
---------------------------11-11--
10-10-------10-10-----------------
------------------------9-9-------

-------------------------------------------------
-------12-12------12-12-------12-12-------12-12--
-------------------------------------------------
-10-10------10-10-------10-10-------10-10--------


----------------9-9-----10-10-----11---
-------12-12---------------------------
------------7-7-----8-8-------9-9------
-10-10---------------------------------
_______________________________________
---------------------------------------

3x CHORUS- play similarly.
Ends accompanied by drums.
--------------------------
--------------------------




Simple innit?
Comments