Purple Gekko - Go The Other Way Chords & Tabs

 

Go The Other Way Chords & Tabs

Purple Gekko Chords & Tabs

Version: 2 Type: Tab 0 ratings
1 star 2 stars 3 stars 4 stars 5 stars
comments

Go The Other Way Tab

Go the other way.
by Purple Gekko
---------------
Hollow Records

Verse
---------------------------------------0--------0----|
-----2-------2-------2-------2-------2---2-----2--2--|
---2---2---2---2---2---2---2---2---2---------2-------|
-4-------3-------2-------1-------0---------0---------|
-----------------------------------------------------|
-----------------------------------------------------|
[ Tab from: http://www.guitartabs.cc/tabs/p/purple_gekko/go_the_other_way_tab_ver_2.html ]
Chorus
-2--2-2---2---2-2--2--2-2--2--2--2--2---2-2--2----|
-2--2-2---2---2-2--2--2-2--2--2--2--2---2-2--2----|
-2--2-2---2---2-2--2--2-2--2--2--2--2---2-2--2----|
-4--4-4---4---4-3--3--3-3--3--2--2--2---1-1--1----|
--------------------------------------------------|
--------------------------------------------------|

-0--0--0--0---0-0--0-0--0-0--0---0-0-0-0-0-0-0-0-0-0--|
-3--3--3--3---0-0--3-3--0-0--0---2-2-2-2-2-2-2-2-2-2--|
-2--2--2--2---2-2--2-2--2-2--2---2-2-2-2-2-2-2-2-2-2--|
-0--0--0--0---2-2--0-0--2-2--2---2-2-2-2-2-2-2-2-2-2--|
------------------------------------------------------|
------------------------------------------------------|

I Can't figure out the lead solo that the lead guitarist plays.
Check the video cos it looks solid.
Comments