Pure Prairie League - Amy Chords & Tabs

 

Pure Prairie League Chords & Tabs

Version: 1 Type: Tab 0 ratings
1 star 2 stars 3 stars 4 stars 5 stars
comments

Amy Tab

   
-------------------------------------------------------------------------
			     Amy - Pure Prairie League
-------------------------------------------------------------------------
Tabbed by: Ryan Baker

Email: ohiogrown05@netzero.net

Tuning: Standard

 This is a fun intro... Good Luck!
[ Tab from: http://www.guitartabs.cc/tabs/p/pure_prairie_league/amy_tab.html ]
e|------------------------------------------------------------------------|
B|------------------------------------------------------------------------|
G|-------------------9-11-9-----------------------------------------------|
D|------7-7-9p7-9/11--------11-9-----7-7-9p7-9/11-9-9---------------------|
A|--7h9---------------------------7h9-------------------------------------|
E|------------------------------------------------------------------------|

e|------------------------------------------------------------------------|
B|----------------------------10----10------------------------------------|
G|------------------9-11-9-11----11----11-9-11-9---------9----------------|
D|------7-7-9p7-9/11-----------------------------11-9-11---11-9-7---------|
A|--7h9-------------------------------------------------------------------|
E|------------------------------------------------------------------------|



| /  slide up
| \  slide down
| h  hammer-on
| p  pull-off
| ~  vibrato
| +  harmonic
| x  Mute note
=========================================================================
Comments
Pure Prairie League chords | Pure Prairie League Amy tab