Pupil - Nasaan Ka Chords & Tabs

 

Nasaan Ka Chords & Tabs

Pupil Chords & Tabs

Version: 1 Type: Tab

Nasaan Ka Tab

Ok, uhmm... this are some song 'leads'... If you have heard ng piano sa song na yun,
try mo sa guitar ngayon...

Eto, sa verse2...
|-17-17--14-14-14--12-12-12----------|
|------------------------------------|
|------------------------------------|
|------------------------------------|
|------------------------------------|
|------------------------------------|


Eto, pagkatapos ng liine na, "Nawala lang parang bula"...
|------------------------------------|
|------------66----------------------|
|---55-77-55-------------------------|
|------------------------------------| (iilang ulit yan)
|------------------------------------|
|------------------------------------|

[ Tab from: http://www.guitartabs.cc/tabs/p/pupil/nasaan_ka_tab.html ]
Eto, sa line na "Mahahanap din kita"
|------------------------------------|
|------------12----------------------|
|---11h13-11----11-9-----------------| (ilang ulit din yan)
|------------------------------------|
|------------------------------------|
|------------------------------------|


Eto, sa line ring, "Mahahanap din kita"... Pero pagkatapos na lng line na "Kung may langit nga ba"...
|----------17------------17-----------19-17--|
|-15-17-15------15-17-15-----15-17-15--------|
|--------------------------------------------|
|--------------------------------------------| (iilang ulit din yan)
|--------------------------------------------|
|--------------------------------------------|

yan lang po... pakinggan niyo nalang ang song para malaman niyo ang timing... o bumili
nalang kayo ng Beautiful Machines na debut album ng Pupil... Suportahan si Ely at ang
iba pang dating miyembro ng The Mongols (pati na si Jerome)! Lalo na ang eheads! para
to sa mga friends ko! das, arvin, Eduardo Diego III!