Pupil - Mary Chords & Tabs

 

Mary Chords & Tabs

Pupil Chords & Tabs

Version: 2 Type: Tab

Mary Tab

   
Mary
[pupiL][Beautiful Machines]
taBBed by void
this was suNg aNd comPosed by YaNi yUzon.. yeah.. that's riGht.. yaEL's BiG Bro..
iNtro-cxemreh may effect yan.. para maganda ung tunog.. hehe..
E-----------------------------------I--------------------|
B-----------------------------------I--------------------|
G---------------5-------------------I------------5-------|
D-----------5-7---7~--5-5h7-5-------I--------5-7---7~----|
A--5~-5-5h7-------------------7-6-5-I--5-5h7-------------|
E-----------------------------------I--------------------|
Verse                                      Power Chords
Dm(strum)          Am(Strum)                Dm(strum) Am(Strum)
E-1------------------------------------    -5--------5--------|
B-3----------------1-------------------    -5--------5--------|
G-2----------------2------------------- or -7--------5--------|
D------------------2-------------------    -7--------7--------|
A--------------------------------------    -5--------7--------|
E--------------------------------------    -5--------5--------|
Chorus(kayo na bahala sa strummiNg, madaLi LaNg namaN eh..)
  Cm  Gm  Dm  Am
E-3---3---5---5-----|
B-3---3---5---5-----|
G-5---3---7---5-----|
D-5---5---7---7-----|
A-3---5---5---7-----|
E-3---3---5---5-----|
yUng pLuckiNg sa outro tuLad nuNg sa iNtro.. hehe.. kakatamad na iLagay eh..


saLmatz.. saNa maiNtindiHan nyo...
[ Tab from: http://www.guitartabs.cc/tabs/p/pupil/mary_tab_ver_2.html ]