Pupil - Different Worlds Chords & Tabs

 

Different Worlds Chords & Tabs

Pupil Chords & Tabs

Version: 2 Type: Tab

Different Worlds Tab

Different Worlds
Pupil
Tabber: Sharlie Adrian Enriquez

ang ganda ng kantang to, isa sa paborito ko

Intro: Bass 4x lahat pati lead
-|-------------------------------|-
-|-------------------------------|-
-|-------------------------------|-
-|-------------------------------|-
-|-------------------------------|-
-|--224455667-224455660----------|-

Lead:
-|-----------------------17------|-
-|-----18-16-------------16------|-
-|--15-------17-15-1717--15------|-
-|-------------------------------|-
-|-------------------------------|-
-|-------------------------------|-

-|-------------------------------|-
-|-----18-16---------------------|-
-|--15-------17-15-17------------|-
-|--------------------15---------|-
-|-------------------------------|-
-|-------------------------------|-


Verse: Same as intro

Chorus:
-|-------------------------------|-
-|-----------3-------------------|-
-|-2--4--2---2-------------------|- 2x
-|-2--4--4-----------------------|-
-|-------4-----------------------|-
-|-------------------------------|-
[ Tab from: http://www.guitartabs.cc/tabs/p/pupil/different_worlds_tab_ver_2.html ]
Bridge:
-|----------------------------------------------|-
-|----------------------------------------------|-
-|-9--7--------9--7-----------------------------|-
-|-9--7--7--6--9--7--7--76767676767676777-------|-
-|-7--5--7--6--7--5--7--76767676767676777-------|-
-|-------5--4--------5--54545454545454555-------|-

repeat chorus

Ad-lib:
-|----------------------------------------------|-
-|-----------14-14h15h14------------------------|-
-|-9-10--14--14-14------------------------------|-
-|-9-10--14---x--x------------------------------|-
-|-7--9--12--12-12------------------------------|-
-|----------------------------------------------|-

-|----------------------------------------------|-
-|-----------14-14h15h17------------------------|-
-|-9-10--14--14-14------------------------------|-
-|-9-10--14---x--x------------------------------|-
-|-7--9--12--12-12------------------------------|-
-|----------------------------------------------|-

or
-|-------------------------------------------------------------------------|
-|--5--7---10-----14h15/17-------------------------------------------------|
-|-------------------------------------------------------------------------|
-|-------------------------------------------------------------------------|
-|-------------------------------------------------------------------------|
-|-------------------------------------------------------------------------|


Coda Seven, Members:
Archie Escasio- Vox
Sharlie Enriquez(Ako)- Guitars
Robert Angusto- Bass
Pat Ramirez- Drums