Punkreas - Tolleranza Zero Chords & Tabs

 

Tolleranza Zero Chords & Tabs

Punkreas Chords & Tabs

Version: 1 Type: Tab 0 ratings
1 star 2 stars 3 stars 4 stars 5 stars
comments

Tolleranza Zero Tab

   
Tolleranza zero - Punkreas

Main riff/Intro:   
E ------------------------
B ------------------------
G ---------5--------------
D ----55-23---------------
A 0-03------3-235-7-3-5-2-
E ------------------------

Oppure
E ------------------------
B ------------------------
G ---------5--------------
D ----55-23---------------
A 0-03------3-235-7-8-7-5-
E ------------------------

Riff1
E -----------   - Molte volte 
B -----------   - palm-muted
G 5-5-55----- + -
D 5-5-55555-7   7
A 3-3-33555-7   7  
E ------333-5   5

Oppure:
E -----------   - Molte volte 
B -----------   - palm-muted
G 5-5-55777-- + -
D 5-5-55777-7   7
A 3-3-33555-7   7  
E ----------5   5
[ Tab from: http://www.guitartabs.cc/tabs/p/punkreas/tolleranza_zero_tab.html ]
Rit.
E -----------------------------------
B -----------------------------------
G -----------------------------------
D 7-7-9-10-5-5-9-10-3-3-3-3-5-5-10-9-
A 7-7-9-10-5-5-9-10-3-3-3-3-5-5-10-9-
E 5-5-7-8--3-3-7-8--1-1-1-1-3-3-8--7-
Tolleranza zero...

Assolo
E ------------------------------------------------------------------------
B ------------------------------------------------------------------------
G ------------------------------------------------------------------------
D ---55-3235-5-2355555-532020--------------0-2353202--2-532----02222333---
A 003------------------------32320-0-00-023-3-------30-3---2333--------32-
E --------------------------------3----3----------------------------------
Comments