Punkreas - Lorologio Chords & Tabs

 

Lorologio Chords & Tabs

Punkreas Chords & Tabs

Version: 1 Type: Tab 0 ratings
1 star 2 stars 3 stars 4 stars 5 stars
comments

Lorologio Tab

L'OROLOGIO DA PARANOIA E POTERE


dopo l'introduzione solo vocale c'è questo riff

riff intro
--------------------------------
--------------------------------
------9-9-9-9-9-9-7-9-7-5-7-9---
------9-9-9-9-9-9-7-9-7-5-7-9---
------7-7-7-7-7-7-5-7-5-3-5-7---
-------------------------------- 

riff strofa 
--------------------------------
--------------------------------
------9-9-9-9-9-9-7-9-7-5-7-9---
------9-9-9-9-9-9-7-9-7-5-7-9---
------7-7-7-7-7-7-5-7-5-3-5-7---
--------------------------------
il ritornello 
va eseguito con questo riff

--------------------------------
--------------------------------
-9--------7-------5-------7-7---
-9-(x9)---7-(x9)--5-(x9)--7-7---
-7--------5-------3-------5-5---
--------------------------------
tutti i meccanismi......

finito il rit ritorna l'introduzione poi prosegue il riff
strofa fino al secondo ritornello quando il testo dice
..che ora posso far saltare nel frangente che mi pare..."
[ Tab from: http://www.guitartabs.cc/tabs/p/punkreas/lorologio_tab.html ]
Il finale quando canta " è ora è ora" è così
---------------------------------
---------------------------------
----7---9-9----------------------
----7---9-9----------------------
----5---7-7----------------------
---------------------------------

poi quando dice "ma ora il tempo abbiam fermato...."
fino alla fine del testo fa così
------------------------------------
------------------------------------
--9-------7------5------7------9----
--9-(x8)--7-(x8)-5-(x8)-7-(x8)-9-(x8)
--7-------5------3------5------7----
------------------------------------
come finale solo strumentale si fa l'introduzione per due volte

Ho anche provato ha cercare il solo per chitarra e penso faccia così
-9-8-7-------9-8-7---------9-8-7-----------------------------------------------------
------9-7---------9-7------------9-7-----7-9---------------------------------------
---------9-----------9-7-------------9-9-----9-9(x6)-7-9-7-5-7-9-9(x6)-7-9-12---
-
QUESTA è LA MIA VERSIONE DI L'OROLOGIO. SPERO DI ESSERE STATO 
CHIARO E FEDELE ALLA CANZONE ORIGINALE. SE VOLETE SCRIVERMI PER 
CHIEDERMI QUALCHE COSA O PER CORREGGIERMI SCRIVETE A gilumida@tin.it
CIAO A TUTTI DA MIKE




Comments