Punkreas - Fegato E Cuore Chords & Tabs

 

Fegato E Cuore Chords & Tabs

Punkreas Chords & Tabs

Version: 1 Type: Tab 0 ratings
1 star 2 stars 3 stars 4 stars 5 stars
comments

Fegato E Cuore Tab

FEGATO E CUORE (PELLE)


riff1 intro
----------------------------------------
----------------------------------------
----------------------------------------
--2-2-2--6-6-6--8-8-8--10-10-10--6-6-6--
--2-2-2--6-6-6--8-8-8--10-10-10--6-6-6--
--1-1-1--4-4-4--6-6-6---8--8--8--4-4-4--

Nella strofa c'è questo riff2
---------------------------------
---------------------------------
---------------------------------
--3-3-3--6-6-6--8-8-8--10-10-10--
--3-3-3--6-6-6--8-8-8--10-10-10--
--1-1-1--4-4-4--6-6-6---8--8--8--
"l'ambulanza con sirene spiegate...."



Quando il testo dice "allora prendono il cuore..." 
il riff strofa cambia pennata. Finita la prima strofa 
ritorna l'introduzione e dopo si ripete il riff strofa.


il ritornello ha questo riff3

--------------------------------------------------------
--------------------------------------------------------
--------------------------------------------------------
--12-12-12-12-12--10-10-10-10-10--8-8-8-8-8--6-6-6-6-6--
--12-12-12-12-12--10-10-10-10-10--8-8-8-8-8--6-6-6-6-6--
--10-10-10-10-10---8--8--8--8--8--6-6-6-6-6--4-4-4-4-4--

"..c'è chi dice è un dovere.."
[ Tab from: http://www.guitartabs.cc/tabs/p/punkreas/fegato_e_cuore_tab.html ]
Quando il rit dice "..non è così, non è così..."
il riff sopra cambia fino a "...per vivere a lungo si nutre
di noi"
riff4
-------------------------------------------------------
-------------------------------------------------------
-------------------------------------------------------
--12-12-12-12-12--10-10-10-10-10--8-8-8-8-8-8-8-8-8-8--
--12-12-12-12-12--10-10-10-10-10--8-8-8-8-8-8-8-8-8-8--
--10-10-10-10-10---8--8--8--8--8--6-6-6-6-6-6-6-6-6-6--


-------------------------------------------------------
-------------------------------------------------------
-------------------------------------------------------
--6-6-6-6-6--4-4-4-4-4--3-3-3-3-3----------------------
--6-6-6-6-6--4-4-4-4-4--3-3-3-3-3----------------------
--4-4-4-4-4--2-2-2-2-2--1-1-1-1-1----------------------


Quando il rit dice "..e alzando la testa vedrai.." il riff torna 
come il riff3
Alla fine del ritornello va aggiunto questo piccolo pezzo
riff4
---------------------------------------
---------------------------------------
---------------------------------------
--6-6--8-8--10-10--12-12---------------
--6-6--8-8--10-10--12-12---------------
--4-4--6-6---8--8--10-10---------------

Dopo il riff4 c'è il solo

---6-4-----------------------------------------
-------6-4-5------------------4-5-6-4---4------
--------------4-5-4-5---4-5-6---------6---5-4--
-----------------------------------------------
-----------------------------------------------
-----------------------------------------------

Dopo il solo si ripetono le parti già tabbate


Nel finale si aggiunge al riff4 questo pezzo

-------------------------------
-------------------------------
-------------------------------
--6-6-6-6--4-4-4-4-------------  (x2)
--6-6-6-6--4-4-4-4-------------
--4-4-4-4--2-2-2-2-------------


SPERO DI ESSERE STATO CHIARO E FEDELE ALLA CANZONE
SE AVETE DOMANDE O SUGGERIMENTI IL MIO INDIRIZZO è gilumida@tin.it

ciao ciao da Mike
Comments