Punkreas - Falsi Preoccupati Chords & Tabs

 

Falsi Preoccupati Chords & Tabs

Punkreas Chords & Tabs

Version: 1 Type: Tab 0 ratings
1 star 2 stars 3 stars 4 stars 5 stars
comments

Falsi Preoccupati Tab

   
Artist - Punkreas 
Song - Falsi Preoccupati 
Album - Paranoia e Potere

Introduzione e strofa

chit.1
E5                  D5                   C5                                          
una situazione demografica alquanto preoccupante, 
                  B5         D5          E5 
che spinge il governante a pescare dal cilindro...

chit.2
1|----------------------------------------------------------|
2|--7h8-7-5-7-8--7h8-7-5-7-8--7h8-7-5-7-8-7-10b12r10-8-7-8--|
3|----------------------------------------------------------|
4|----------------------------------------------------------|
5|----------------------------------------------------------|
6|----------------------------------------------------------|


Ritornello

 C5                        D5
paese ormai famoso per il pane, 
              B5                      E5               D5
le fette di salame che da tempo sono poste sopra gli occhi
 C5                  D5                   E5       D5     C5...
SONO TUTTI ATTORI PREPARATI, DEI FALSI PREOCCUPATI

Variazione
[ Tab from: http://www.guitartabs.cc/tabs/p/punkreas/falsi_preoccupati_tab.html ]
chit.1 e chit.2
1|----------------------------------------|
2|----------------------------------------|
3|--9----X----9----5-------5-----7-----7--|
4|--9----X----9----5-------5-----7-----7--|
5|--7----X----7----3-------3-----5-----5--|
6|----------------------------------------|
   tutto bene,    quando dormi senza pene...

Assolo - penso che le chitarre si alternino / E5 - D5 - C5 - B5 - D5 /
         
1|------10-----10-----10-8-7-----10----------------------------------------------------|
2|--7-8----7-8----7-8--------7-8----7-8-7-7-7-10-8-7-----------------------------------|
3|-------------------------------------------------------------------------------------|
4|---------------------------------------------------/10-10-10-9-7----10-10-10p9-7-----|
5|-----------------------------------------------------------------10--------------10--|
6|-------------------------------------------------------------------------------------|
                            |X3| |X3| |X3|                    |X3| |X3| |X3| |X3|
1|-----------------------------------------------------------------------------------------|
2|---------------------------12---15---17---20--20--19--20-19--12---17---15---12-----------|
3|---------------------7-7-7-14b--17b--19b--22b-22b-21b--------14b--19b--17b--14br--12-----|
4|--10-10-10-9-7-9-9-9-----------------------------------------------------------------14~-|
5|-----------------------------------------------------------------------------------------|
6|-----------------------------------------------------------------------------------------|

Spero di essere stato preciso, per qualunque consiglio e/o commento scrivetemi a klakurt@hotmail.com
pace, amore e anarchia
Klaudio

Comments