Pungent Stench - Games Of Humiliation Chords & Tabs

 

Games Of Humiliation Chords & Tabs

Pungent Stench Chords & Tabs

Version: 1 Type: Tab 0 ratings
1 star 2 stars 3 stars 4 stars 5 stars
comments

Games Of Humiliation Tab

   
GAMES OF HUMILIATION
Band: Pungent Stench
Album: Been Caught Buttering

Transcribed by: Jay Orosa (shredd_32@hotmail.com) April 2002

TUNING: D (one whole step down)

RIFF A
e:---------------|
B:---------------|
G:---------------|
D:---------------| 4x
A:--4/5-5-4-5-4--|
E:--2/3-3-2-3-2--|

RIFF B
e:--------------------------------|
B:--------------------------------|
G:--------------------------------|
D:--------------------------------| 4x
A:--4/5-5-4-5-2~----4/5-5-4-5-5~--|
E:--2/3-3-2-3-----0-2/3-3-2-3-----|

RIFF C
e:----------------------------|
B:----------------------------|
G:----------------------------|
D:----------------------------| 4x
A:----------------6--5tr6-----|
E:--0----2--4--6-----------6--|

RIFF D
e:----------------------------|
B:----------------------------|
G:----------------------------|
D:----------------------------| 4x
A:--2----4--6--8--6--5tr6-----|
E:--0----2--4--6-----------6--|

RIFF E       1,               2
---------------|---------------|
---------------|---------------|
---------------|---------------|
---------------|---------------| 2x
--2/3-3-2-3-2--|--6/7-7-6-7-6--|
--0/1-1-0-1-0--|--4/5-5-4-5-4--|

REPEAT RIFF D 4x then play RIFF E 2x

RIFF F
e:------------------------------------|
B:------------------------------------|
G:------------------------------------|
D:------------------------------------| 8x
A:--2222--2222------2222--2222333333--|
E:------11----111111----11------------|
[ Tab from: http://www.guitartabs.cc/tabs/p/pungent_stench/games_of_humiliation_tab.html ]
RIFF G
e:--------------|
B:--------------|
G:--------------|
D:--------------| 2x
A:--------------|
E:--0-let-ring--|

REPEAT RIFF D 4x then play RIFF E 2x

RIFF H        1,3               ,2                      ,4 
e:---------------|----------------|-----------------------|
B:---------------|----------------|-----------------------|
G:---------------|----------------|-----------------------|
D:---------------|----------------|-----------------------|
A:---------------|-6--5-----------|-6-5--4----4-----------|
E:--0--2--4--5-6-|-------6--5-4-3-|---------6---6-5-4-3-2-|

RIFF I (strum)      8x     
e:--------------------|-END-|
B:--------------------|-----|
G:--8--------------6--|--8--|
D:--8--------------6--|--8--| 
A:--6--------------4--|--6--|
E:--6--------------4--|--6--|

END

LYRICS:
Games Of Humiliation

Hey babe feel the whip on your naked skin
I'll torture, I'll hit - Cry in ecstasy
Needles through your nipples to get them stiff
Weight on your genitals make your cunt foamy and hot
You do like pain, it gives you pleasure
Beg and whimper, I humiliate your being
I have my technics, rigid and severe
I wanna get you to a real orgasm
Now let us change roles and show your treatment
Put on some leather and be my domina
Please give me back what I deserve
No matter what kind ache I'll feel
On your knees my slave, lick my heels
Your penis zone I shave - Drop wax on it
Clean the floor and eat my shit you little gormandizer
Don't forget you'll feel the whip when you don't obey

For questions, comments, suggestions, corrections, etc., E-mail me at shredd_32@hotmail.com
Comments