Punchline - Getting There Is Getting By Chords & Tabs

 

Getting There Is Getting By Chords & Tabs

Punchline Chords & Tabs

Version: 2 Type: Tab 0 ratings
1 star 2 stars 3 stars 4 stars 5 stars
comments

Getting There Is Getting By Tab


Band:Punchline
Song:Getting There Is Getting By
Album:Action
Tabbed By:Me
Date Tabbed:5/11/04


Ok, the intro is really easy

It isn't hard to figure out but i
figured i'd tab it anyway

[ Tab from: http://www.guitartabs.cc/tabs/p/punchline/getting_there_is_getting_by_tab_ver_2.html ]
e|-------------------------------------------------------|
B|-------------------------------------------------------|
G|-------------------------------------------------------|
D|-------------6-----7----------676----------------------|
A|--------------7-7---9-7~---9------79-7-----------------|
E|---------------7-----9---------------------------------|

e|-------------------------------------------|
B|-------------------------------------------|
G|-------------------------------------------|
D|---6----7---------7-9-7--------------------|
A|----7-7--9-7---9---------79-7--------------|
E|-----7----9--------------------------------|

Any questions, post them under the comments.
Comments