Pulse Ultra - Never The Culprit Chords & Tabs

 

Never The Culprit Chords & Tabs

Pulse Ultra Chords & Tabs

Version: 1 Type: Bass Tab 0 ratings
1 star 2 stars 3 stars 4 stars 5 stars
comments

Never The Culprit Bass Tab

   
#----------------------------------PLEASE NOTE---------------------------------#
#This file is the author's own work and represents their interpretation of the #
#song. You may only use this file for private study, scholarship, or research. #
#------------------------------------------------------------------------------#

Pulse Ultra - Never The Culprit
Submitted By: metalbassist
EMail: creeping_death636@hotmail.com
Album: Headspace

Instrument: 5 String Bass

Tabbed by: Eric Maddalena (creeping_death636@hotmail.com)

Tuning: C, F, A#, D#, G#

This song is played using a five string bass tuned up half a step. 

Intro (6x)

G#|-----------------------------------------||
D#|-----------------------------------------||
A#|-2-2-2-5-5-5-5-5-0-0-0-5-5-5-------5---5-||
 F|-----------------------------3-3-3---3---||
 C|-----------------------------------------||

Main Riff (4x)

G#|--------------------------------||
D#|--------------------------------||
A#|-----------------------5-5-5----||
 F|-----------------5-5-5--------3-||
 C|-0-0-0-3-3-3-3-3----------------||

Verse 1

G#|----------------------------------------------------------------------||
D#|----------------------------------------------------------------------||
A#|---4p2------4p2-----------4p2-----4p2----------4p2------4p2-----------||
 F|-------2--------2-0-2---------2-------2-0-2--------2--------2-0-2-----||
 C|-0-------0------------3-0-------0----------2-0--------0-----------3-5-||

G#|------------------------------------------------------------------||
D#|------------------------------------------------------------------||
A#|---4p2-----4p2------------4p2-----4p2------------4p2------4p2-----||
 F|-------2-------2-0-2----------2-------2-0-2----------2--------2-0-||
 C|-0-------0-----------3-0--------0-----------2--0-------0----------||


G#|----------||
D#|----------||
A#|----------||
 F|-------5--||
 C|-2-3-0----||
[ Tab from: http://www.guitartabs.cc/tabs/p/pulse_ultra/never_the_culprit_btab.html ]

Main Riff (4x)


Verse 2

G#|----------------------------------------------------------------------||
D#|----------------------------------------------------------------------||
A#|---4p2------4p2-----------4p2-----4p2----------4p2------4p2-----------||
 F|-------2--------2-0-2---------2-------2-0-2--------2--------2-0-2-----||
 C|-0-------0------------3-0-------0----------2-0--------0-----------3-5-||

G#|----------------------------------------------------------------------||
D#|----------------------------------------------------------------------||
A#|---4p2------4p2-----------4p2-----4p2----------4p2------4p2-----------||
 F|-------2--------2-0-2---------2-------2-0-2--------2--------2-0-2-----||
 C|-0-------0------------3-0-------0----------2-0--------0-----------3-5-||

G#|------------------||
D#|------------------||
A#|------------------||
 F|-0-2--------------||
 C|-----3-5--2-3-2-3-||

Main Riff (8x)

Interlude

G#|----------------------------------------------------------------------------------||
D#|----------------------------------------------------------------------------------||
A#|----------------------------------------------------------------------------------||
 F|---------------9h10---------------9h10--------9--------9h10--------9---------9h10-||
 C|-0-0---0-0--10------0-0---0-0--10------0-0-10---0-0-10------0-0-10----0-0-10------||

G#|----------------------------------------------------------------------------------||
D#|----------------------------------------------------------------------------------||
A#|----------------------------------------------------------------------------------||
 F|-----------------------------------------------------------------3-2--------------||
 C|-5-7-3-5-2-3-2-3-5-7-3-5-2-3-2-3-5-7-3-5-2-3-2-3-5-7-3-5-2-3-2-3-----0----3-2-3---||

Main Riff (8x)

Outro (8x)

G#|-------------||
D#|-------------||
A#|-------------||
 F|-------9h10--||
 C|-0--10-------||

Finish on C|-0-||
Comments