Pulley - The Ocean Song Chords & Tabs

 

The Ocean Song Chords & Tabs

Pulley Chords & Tabs

Version: 1 Type: Tab 0 ratings
1 star 2 stars 3 stars 4 stars 5 stars
comments

The Ocean Song Tab

   
-------------------------------------------------------------------------------
			     The Ocean Song - Pulley
-------------------------------------------------------------------------------
[ Tab from: http://www.guitartabs.cc/tabs/p/pulley/the_ocean_song_tab.html ]
By:punk_nz@hotmail.com
:
D-Tune Guitar
:
	Guitar 1:Intro
e|---------------------------------------------------------------|
B|---------------------------------------------------------------|
G|--7------------------------7------7----------------------7-----|
D|--7-------7--------5-------7------7------7-------5-------7-----|
A|--5-------7--------5-------5------5------7-------5-------5-----|
D|----------7--------5-------0-------------7-------5-------0-----|
:	
	Guitar 2:Intro
e|---------------------------------------------------------------|
B|---------------------------------------------------------------|
G|--7----11-9----11-12----11-7------7----------------------7-----|
D|--x-----x-x-----x--x-----x-x------x------7----9-10---9---x-----|
A|--5-----9-7-----9-10-----9-5------5------x----x--x---x---5-----|
D|-----------------------------------------7----9-10---9---------|
:
	Guitar 1&2:Verse 		p=palm muting
e|---------------------------------------------------------------|
B|----/-p-\----------------------------------------/-p-\---------|
G|--7-7--------------/-p-\----------/-p-\--------7-7-------------|
D|--7-7-x12--------7-7------------5-5------------7-7-x12---------|
A|--5-5------------7-7-x12--------5-5-x12--------5-5-------------|
D|-----------------7-7------------5-5------------0-0-------------|
	Here, always looking in...	
:	
	Guitar 1&2:Verse (contd.)
e|---------------------------------------------------------------|
B|----/-p-\------------------------------------------------------|
G|--7-7--------------/-p-\----------/-p-\--------7-7-------------|
D|--7-7-x12--------7-7------------5-5------------7-7-x12---------|
A|--5-5------------7-7-x12--------5-5-x12--------5-5-------------|
D|-----------------7-7------------5-5------------0-0-------------|
	Sureal, exsistance isn't clear...
:
	Guitar 1&2:Chorus	*=play as much as needed
e|---------------------------------------------------------------|
B|----------*---------------*---------------*--------------------|
G|--*-------7-------*-------7-------*-------7-------*------------|
D|--5-------7-------5-------7-------5-------7-------7-------5----|
A|--5-------5-------5-------5-------5-------5-------7-------5----|
D|--5---------------5---------------5---------------7-------5----|
	A thousand miles connected...
:
Then Guitar 1&2 play Intro x0.5
:
Then Guitar 1&2 play Verse
:
Then Guitar 1&2 play Chorus
:
	Guitar 1:Solo Backing	*=play 6x
e|---------------------------------------------------------------|
B|----------*----------------------------------------------------|
G|--*-------5-------*-------*----*-----------*-----------*-------|
D|--3-------5-------5-------0----3-----------5-----------0-------|
A|--3-------3-------5-------0----3-----------5-----------0-------|
D|--3---------------5-------0----3-----------5-----------0-------|
:
	Guitar 2:Solo		b=bend	p=pull off  h=hammer on 
e|---------------------------------------------------------------|
B|---------------------------------------------------------------|
G|------------------------2--------------------------------------|
D|--7-7-7-7-5-5-5-3-5-5-5---3bp0-3-5p3-5p3-0-3-5p3-5p3-0---------|
A|-------------------------------------------------------3-3-5-5-|
D|---------------------------------------------------------------|
:
	Guitar 1:Solo Backing (contd.)
e|---------------------------------------------------------------|
B|------------------------------*--------------------------------|
G|--------*-------------*-------5-------*-------*----*-----------|
D|--------0-------------3-------5-------5-------0----3-----------|
A|--------0-------------3-------3-------5-------0----3-----------|
D|--------0-------------3---------------5-------0----3-----------|
:
	Guitar 2:Solo (contd.)
e|---------------------------------------------------------------|
B|---------------------------------------------------------------|
G|------------5-5-5h7p5-----------------------2------------------|
D|--3-3-5-7-7-----------7-7-7-7-5-5-5-3-5-5-5---3bp0-3-5p3-5p3-0-|
A|---------------------------------------------------------------|
D|---------------------------------------------------------------|
:
	Guitar 1:Solo Backing (contd.)
e|------------------------|
B|------------------------|
G|--*---------------------|
D|--5---------------------|
A|--5---------------------|
D|--5---------------------|
:
	Guitar 2:Solo (contd.)
e|----------------7b------|
B|----------------7b------|
G|----------5-5-7---------|
D|--5-5-7-7---------------|
A|------------------------|
D|------------------------|
:
Then Guitar 1&2 play Verse
:
Then Guitar 1&2 play Chorus
:
	Guitar 1&2:Outro	Strum lightly
e|-------------------------------------------|
B|-------------------------------------------|
G|--7-----------------------------7----------|
D|--7---------7---------5---------7----------|
A|--5---------7---------5---------5----------|
D|------------7---------5---------0----------|
Comments