Pulley - Second Best Chords & Tabs

 

Second Best Chords & Tabs

Pulley Chords & Tabs

Version: 1 Type: Tab 0 ratings
1 star 2 stars 3 stars 4 stars 5 stars
comments

Second Best Tab

   
SECOND BEST - Pulley


By: Bart J.v.dalen@Inter.nl.net

Intro 
e|--------------------------------------------|
B|--------------------------------------------|
G|--------------------------------------------|
D|--10-10-10---6-6-6---3-3-3---5-5-5----------|
A|--10-10-10---6-6-6---3-3-3---5-5-5----------|	Play 2 times 
E|---8--8--8---4-4-4---1-1-1---3-3-3----------|	then play:			

e|-----------------------------------------------
B|-----------------------------------------------
G|---------------------8-8-8---3-3-3-------------
D|--10-10-10---6-6-6---8-8-8---3-3-3---10-10-10--
A|--10-10-10---6-6-6---6-6-6---1-1-1---10-10-10--
E|---8--8--8---4-4-4--------------------8--8--8--

e|-------------------------|
B|-------------------------|
G|-------------------------|
D|---6-6-6---3-3-3-3-3-----|
A|---6-6-6---3-3-3-3-3-----|
E|---4-4-4---1-1-1-1-1-----|

Guitar 2 
e|-------------------------------------------------------------
B|-------------------------------------------------------------
G|-6-5-6-5-6-5-6-5-6-5-5-5-5-5-6-6-5-5-3-3-1-1-0-0-0-0-5-5-5-5-
D|-------------------------------------------------------------
A|-------------------------------------------------------------
E|-------------------------------------------------------------

e|------------------------------------------------------|
B|------------------------------------------------------|
G|-6-5-6-5-6-5-6-5-6-5-5-5-6-8-8-10-10-8-8-6-6-5-5------|
D|------------------------------------------------------|
A|------------------------------------------------------|
E|------------------------------------------------------|

Verse
e|------------------------------------|
B|------------------------------------|
G|------------------------------------|
D|--10-10-10---6-6-6---3-3-3---5-5-5--|	Play 3 times
A|--10-10-10---6-6-6---3-3-3---5-5-5--|	then play:
E|---8--8--8---4-4-4---1-1-1---3-3-3--|	

e|---------------------------------------|
B|---------------------------------------|
G|---------------------8-8-8---3-3-3-----|
D|--10-10-10---6-6-6---8-8-8---3-3-3-----|
A|--10-10-10---6-6-6---6-6-6---1-1-1-----|
E|---8--8--8---4-4-4---------------------|

Chorus
e|------------------------------------
B|------------------------------------
G|---------------------8-8-8---3-3-3--
D|--10-10-10---6-6-6---8-8-8---3-3-3--
A|--10-10-10---6-6-6---6-6-6---1-1-1--
E|---8--8--8---4-4-4------------------

e|-------------------------------------------|
B|-------------------------------------------|
G|-------------------------------------------|
D|-10-10-10---6-6-6---5555555--6666666-------|
A|-10-10-10---6-6-6---5555555--6666666-------|
E|--8--8--8---4-4-4---3333333--4444444-------|

e|-----------------------------------------------
B|-----------------------------------------------
G|-----------------------------------------------
D|--5555555---10101010101010---8888888--6666666--
A|--5555555---10101010101010---8888888--6666666--
E|--3333333----8-8-8-8-8-8-8---6666666--4444444--

e|----------------------|
B|----------------------|
G|----------------------|
D|--8-8-8---5-5-5-------|
A|--8-8-8---5-5-5-------|
E|--6-6-6---3-3-3-------|

Bridge
e|------------------------------------------------------------|
B|------------------------------------------------------------|
G|----------8-8-8---------6-6-6---------8-8-8-----------------|
D|--10-10---8-8-8--10-10--6-6-6--10-10--8-8-8--8888--5555-----|
A|--10-10---6-6-6--10-10--4-4-4--10-10--6-6-6--8888--5555-----|
E|---8--8-----------8--8----------8--8---------6666--3333-----|

play 3 times
then play:
e|------------------------------------------------------
B|------------------------------------------------------
G|------------------------------------------------------
D|--6666666--5555555--10101010101010--8888888--6666666--
A|--6666666--5555555--10101010101010--8888888--6666666--
E|--4444444--3333333---8-8-8-8-8-8-8--6666666--4444444--

e|--------------------|
B|--------------------|
G|--------------------|
D|--8-8-8---5-5-5-----|
A|--8-8-8---5-5-5-----|
E|--6-6-6---3-3-3-----|

song structure:

Intro, Verse, Chorus, Verse, Bridge, Intro===========


-------------------------------------------------------------------------------
                              SECOND BEST - Pulley
-------------------------------------------------------------------------------

By:chris tagseth jughead_r17@hotmail.com

^ = palm mute
" = up strokes
[ Tab from: http://www.guitartabs.cc/tabs/p/pulley/second_best_tab.html ]
riff(just freestyle this part):
e|-------------------------------------------------------------------------|
B|-------------------------------------------------------------------------|
G|-------------------------------------------------------------------------|
D|-10-10h11-10-10-10h11-10-10-10h11-10-10-10h11-10-8-6-5-3-5-6-8--10-10h11-|
A|-------------------------------------------------------------------------|
E|-------------------------------------------------------------------------|

e|----------------------------------------------------------|
B|----------------------------------------------------------|
G|----------------------------------------------------------|
D|-10-10-10h11-10-10-10h11-10-10-10h11-10-15-13-11-10-5-6-8-|
A|----------------------------------------------------------|
E|----------------------------------------------------------|

intro 1:
e|----------------------------|
B|----------------------------|
G|----------------------------|
D|-10-10-10-6-6-6-3-3-3-5-5-5-|
A|-10-10-10-6-6-6-3-3-3-5-5-5-|
E|-8--8--8--4-4-4-1-1-1-3-3-3-|
   ^  ^  "  ^ ^ " ^ ^ " ^ ^ "
intro 2:
e|-----------------------------------------------------|
B|-----------------------------------------------------|
G|----------------8-8-8-3-3-3--------------------------|
D|-10-10-10-6-6-6-8-8-8-3-3-3-10-10-10-6-6-6-3-3-3-3-3-|
A|-10-10-10-6-6-6-6-6-6-1-1-1-10-10-10-6-6-6-3-3-3-3-3-|
E|-8--8--8--4-4-4-------------8--8--8--4-4-4-1-1-1-1-1-|
   ^  ^  "  ^ ^ " ^ ^ " ^ ^ " ^  ^  "  ^ ^ "

verse 1:
e|----------------------------|
B|----------------------------|
G|----------------------------|
D|-10-10-10-6-6-6-3-3-3-5-5-5-|
A|-10-10-10-6-6-6-3-3-3-5-5-5-|
E|-8--8--8--4-4-4-1-1-1-3-3-3-|
   ^  ^  "  ^ ^ " ^ ^ " ^ ^ "

verse 2:
e|----------------------------|
B|----------------------------|
G|----------------8-8-8-3-3-3-|
D|-10-10-10-6-6-6-8-8-8-3-3-3-|
A|-10-10-10-6-6-6-6-6-6-1-1-1-|
E|-8--8--8--4-4-4-------------|
   ^  ^  "  ^ ^ " 

chorus:
e|---------------------------------------------------------------------------|
B|---------------------------------------------------------------------------|
G|----------------8-8-8-3-3-3------------------------------------------------|
D|-10-10-10-6-6-6-8-8-8-3-3-3-10-10-10-6-6-6-5-5-5-5-5-5-5-6-6-6-6-6-6-6-5-5-|
A|-10-10-10-6-6-6-6-6-6-1-1-1-10-10-10-6-6-6-5-5-5-5-5-5-5-6-6-6-6-6-6-6-5-5-|
E|-8--8--8--4-4-4-------------8--8--8--4-4-4-3-3-3-3-3-3-3-4-4-4-4-4-4-4-3-3-|

e|------------------------------------------------------------|
B|------------------------------------------------------------|
G|------------------------------------------------------------|
D|-5-5-5-5-5-10-10-10-10-10-10-10-8-8-8-8-8-8-8-6-6-6-6-6-6-6-|
A|-5-5-5-5-5-10-10-10-10-10-10-10-8-8-8-8-8-8-8-6-6-6-6-6-6-6-|
E|-3-3-3-3-3-8--8--8--8--8--8--8--6-6-6-6-6-6-6-4-4-4-4-4-4-4-|

solo:
e|--------------------------------------------------------------------------|
B|--------------------------------------------------------------------------|
G|-------------15x13x11\10-13h15p13-11\10-8h10p8-6h8p6-----------8-10/11-13-|
D|-11p10-11p10-----------------------------------------10-8-8-10------------|
A|--------------------------------------------------------------------------|
E|--------------------------------------------------------------------------|

e|-----------------------------------i'm-not-quite-sure-about-this,----------|
B|------------------------------------so-just-freestyle-it,-i-think-it-------|
G|-15p13-11-10-10h11p10-8-6------------sounds-good---------------------------|
D|--------------------------10-8-8-------------------------------------------|
A|-------------------------------8-------------------------------------------|
E|-------------------------------6-------------------------------------------|

bridge 1:
e|-----------------------------------------------------|
B|-----------------------------------------------------|
G|-------8-8-8-------6-6-6-------8-8-8-----------------|
D|-10-10-8-8-8-10-10-6-6-6-10-10-8-8-8-8-8-8-8-5-5-5-5-|
A|-10-10-6-6-6-10-10-4-4-4-10-10-6-6-6-8-8-8-8-5-5-5-5-|
E|-8--8--------8--8--------8--8--------6-6-6-6-3-3-3-3-|

bridge 2:
e|--------------------------------------------------------------------------|
B|--------------------------------------------------------------------------|
G|--------------------------------------------------------------------------|
D|-6-6-6-6-6-6-6-5-5-5-5-5-5-5-10-10-10-10-10-10-10-8-8-8-8-8-8-8-6-6-6-6-6-|
A|-6-6-6-6-6-6-6-5-5-5-5-5-5-5-10-10-10-10-10-10-10-8-8-8-8-8-8-8-6-6-6-6-6-|
E|-4-4-4-4-4-4-4-3-3-3-3-3-3-3-8--8--8--8--8--8--8--6-6-6-6-6-6-6-4-4-4-4-4-|

e|-----------------|
B|-----------------|
G|-----------------|
D|-6-6-8-8-8-5-5-5-|
A|-6-6-8-8-8-5-5-5-|
E|-4-4-6-6-6-3-3-3-|

pick scratch thing:
just rub the edge of your pick against the e and and B strings
Comments