Pulley - Second Best Chords & Tabs

 

Second Best Chords & Tabs

Pulley Chords & Tabs

Version: 2 Type: Bass Tab 0 ratings
1 star 2 stars 3 stars 4 stars 5 stars
comments

Second Best Bass Tab

Second Best - Pulley
tabbed by: ryan b

***rest for feedback/drums (0:00 - 0:09)***

Riff A: (twice)
A--3-3-3--------------------
E--------4-4-4-1-1-1-3-3-3--

Riff B: (once)
A--3-3-3-------6-6-6--------
E--------4-4-4-------6-6-6--

Riff C: (once)
A--3-3-3--------------------
E---------4-4-4--1111-1111--

Riff A: (3 times)
Riff B: (twice)

Riff D: (once)
A--3-3-3-----------------------------------------
E--------4-4-4-3333-3-3-3-4444-4-4-4-3333-3-3-3--
[ Tab from: http://www.guitartabs.cc/tabs/p/pulley/second_best_btab_ver_2.html ]
Riff E: (once)
A--3333-3-3-3-1111-1-1-1------------1-1-1--------
E------------------------4444-4-4-4-------3-3-3--

Riff A: (twice)
Riff B: (once)
Riff C: (once)
Riff A: (3 times)
Riff B: (twice)

Riff F: (3 times)
A--3-333-6-6-6-3-333-4-4-4-3-333-6-6-6-1111-------
E-------------------------------------------3333--

Riff G: (once)
A------------------------3333-3-3-3-1111-1-1-1------------1-----
E--4444-4-4-4-3333-3-3-3-----------------------4444-4-4-4----3--

Riff A: (twice)
Riff B: (once)

Riff H: (once)
A--3-3-3-----------------
E---------4-4-4--1111-1--

Comments