Pulley - Nothing To Lose Chords & Tabs

 

Nothing To Lose Chords & Tabs

Pulley Chords & Tabs

Version: 1 Type: Tab 0 ratings
1 star 2 stars 3 stars 4 stars 5 stars
comments

Nothing To Lose Tab

PULLEY- Nothing to Lose
Album - @#!*
Music by pulley
Tabbed by michael- manus_@hotmail.com


Intro / Verse:

E-|-------------------------------------------------------------------
B-|-------------------------------------------------------------------
G-|--------------------------------------0------------------------3---
D-|0-0--3-3--2-2-------------3-3--2-2----------0--3-3--2-2------3---3-
A-|---------------3-3--1--1------------3----------------------1-------
E-|-------------------------------------------------------------------
   pm.... throughout verse


E------------|--------------------------------------------------------
B------------|--------------------------------------------------------
G--------0---|---PLAY 6 TIMES-----------------------------------------
D----5-------|--------------------------------------------------------
A--3---3-----|--------------------------------------------------------
E------------|--------------------------------------------------------

[ Tab from: http://www.guitartabs.cc/tabs/p/pulley/nothing_to_lose_tab.html ]
Chorus:
E-|----------------------------------------------------------------|--
B-|----------------------------------------------------------------|--
G-|-7-7-7-7---------------------7-7-7-7----------------------------|--
D-|-7-7-7-7--7---8-8-8-8--10----7-7-7-7--7-------8---------10------|--
A-|-5-5-5-5--7---8-8-8-8--10----5-5-5-5--7-----8---8----10----10---|--
E-|----------5---6-6-6-6--8--------------5---6--------8------------|--
   PLAY TWICE


Then repeat verse and chorus, then play this:

E--------------------------|------------------------------------------
B--------------------------|------------------------------------------
G--7-7-7-7-7-7-7-7-7-7-7-7-|------------------------------------------
D--7-7-7-7-7-7-7-7-7-7-7-7-|--7-7-7-7-7-7-7-7---5-5-5-5-5-5-5-5-------
A--5-5-5-5-5-5-5-5-5-5-5-5-|--7-7-7-7-7-7-7-7---5-5-5-5-5-5-5-5-------
E--------------------------|--5-5-5-5-5-5-5-5---3-3-3-3-3-3-3-3-------
   pm...........              pm...............................


E-------------------------------------|-------------------------------
B-------------------------------------|-------------------------------
G-------------------------------------|--PLAY 4 TIMES-----------------
D--3-3-3-3-3-3-3-3---2-2-2-2-2-2-2-2--|-------------------------------
A--3-3-3-3-3-3-3-3---2-2-2-2-2-2-2-2--|-------------------------------
E--1-1-1-1-1-1-1-1---0-0-0-0-0-0-0-0--|-------------------------------
   pm..............  pm........(except last time)


Then play verse and repeat the chorus till the end.
Comments