Pulley - Intro-outro Chords & Tabs

 

Intro-outro Chords & Tabs

Pulley Chords & Tabs

Version: 1 Type: Tab 0 ratings
1 star 2 stars 3 stars 4 stars 5 stars
comments

Intro-outro Tab

INTRO-OUTRO - pulley


Tabbed By: Kiv Ghatora
Kiv19@hotmail.com

Part 1
e|---------------------------------------------------------------------------|
B|---------------------------------------------------------------------------|
G|-8---10-10-10-10-10-10-10--------------------------------------------------|
D|-8---10-10-10-10-10-10-10--------------------------------------------------|
A|-6---8--8--8-8--8--8--8---------------------------------------------------|
E|---------------------------------------------------------------------------|
[ Tab from: http://www.guitartabs.cc/tabs/p/pulley/intro_outro_tab.html ]
Part 2
e|---------------------------------------------------------------------------|
B|---------------------------------------------------------------------------|
G|-7-7-7-7-7-7-7-7-7-7-7-7---------------------------------------------------|
D|-7-7-7-7-7-7-7-7-7-7-7-7---------------------------------------------------|
A|-5-5-5-5-5-5-5-5-5-5-5-5---------------------------------------------------|
E|---------------------------------------------------------------------------|

Part 3
e|---------------------------------------------------------------------------|
B|---------------------------------------------------------------------------|
G|---------------------------------8-7-7-------------------------------------|
D|--5-5-5-5-5-5---3-3-3-3-3-3------8-7-7-8-8-8-8-8---------------------------|
A|--5-5-5-5-5-5---3-3-3-3-3-3------6-5-5-8-8-8-8-8---------------------------|
E|--3-3-3-3-3-3---1-1-1-1-1-1------------6-6-6-6-6---------------------------|

End
e|---------------------------------------------------------------------------|
B|---------------------------------------------------------------------------|
G|------------------------------8--------------------------------------------|
D|--5-5-5-5-5-5---3-3-3-3-3-3---8--------------------------------------------|
A|--5-5-5-5-5-5---3-3-3-3-3-3---6--------------------------------------------|
E|--3-3-3-3-3-3---1-1-1-1-1-1------------------------------------------------|
Comments