Pulley - Insects Destroy Chords & Tabs

 

Insects Destroy Chords & Tabs

Pulley Chords & Tabs

Version: 1 Type: Tab 0 ratings
1 star 2 stars 3 stars 4 stars 5 stars
comments

Insects Destroy Tab

   
pulley-iNsEcTsDeStRoY

from 'matters'
standart tuning

this song kicks asses.....awesome!
but i think my intro/bridge isn't correct,i didn't get it better,but
don't worry - it sounds good !!!pleaz rate!!!

>i only tabbed second guitar when it plays different things<

pm.-palm mute
pm_-palm mute lightly
/,\-slide

intro guitar two
e|----------------------------------------------------------------------|
B|-----4-------6--------3-------------------4-------6--------3----------|
G|------5-------5--------5-------------------5-------5--------5---------|
D|-------5-------5--------5-------------------5-------5--------5--------|
A|-3-3-----8-8-----\6-6-----\1-1-6-55-5\3-3-----8-8-----\6-6-----\11111-|
E|----------------------------------------------------------------------|

intro guitar one (comes in at 0:10)
e|-----------------|
B|-----------------|
G|-----------------|
D|-55555555-8888-8-|
A|-55555555-8888-8-|
E|-33333333-6666-6-|
pm ........ ....

pre-verse A guitar one
e|--------------------------------------------------------------------|
B|--------------------------------------------------------------------|
G|-5555-8888------------5555-8888-10101010-------5555-8888------------|
D|-5555-8888-8888-55555-5555-8888-10101010-88888-5555-8888-8888-55555-|
A|-3333-6666-8888-55555-3333-6666--8-8-8-8-88888-3333-6666-8888-55555-|
E|-----------6666-33333--------------------66666-----------6666-33333-|

e|----------------------------------------|
B|----------------------------------------|
G|---------------------5-55555555555555-5-|
D|-6-666-666-5-555-555-5-55555555555555-5-|
A|-6-666-666-5-555-555-3-33333333333333-3-|
E|-4-444-444-3-333-333--------------------|
pm                        ......_______


pre verse A guitar two
e|-----------------------------------------------------------------------|
B|-----------------------------------------------------------------------|
G|-----------------------------------------------------------------------|
D|-5-5-35-5-35-5-3-5-8-5-35-5-35-5-35-5-3-5-8-5-35-5-35-5-35-5-3-5-8-5-3-|
A|-----------------------------------------------------------------------|
E|-----------------------------------------------------------------------|

e|-------------------|
B|-------------------|
G|-------------------|
D|-1-111000-----110--|
A|---------1-111---3-|
E|-------------------|

verse guitar one
e|---------------------------------------------------------------------|
B|---------------------------------------------------------------------|
G|-555555555555555555-88888888------------555555555555555555-888888888-|
D|-555555555555555555-88888888-8888888888-555555555555555555-888888888-|
A|-333333333333333333-66666666-8888888888-333333333333333333-666666666-|
E|-----------------------------6666666666------------------------------|
pm......................................................................

e|-----------------------------------------------------------------------|
B|-----------------------------------------------------------------------|
G|------------555555555555555555-888888888------------555555555555555555-|
D|-8888888888-555555555555555555-888888888-8888888888-555555555555555555-|
A|-8888888888-333333333333333333-666666666-8888888888-333333333333333333-|
E|-6666666666------------------------------6666666666--------------------|
pm ......................................................................

e|------------------------------|
B|------------------------------|
G|-888888888--------------------|
D|-888888888-555555555555555555-|
A|-666666666-555555555555555555-|
E|-----------333333333333333333-|
pm .........
verse guitar two (comes in at 0:42)
e|-------------------------------------------------------|
B|-------------------------------------------------------|
G|-7-87-5--7-87-5--7-87-5--7-87-5--7-87-5--7-87-5-7-87-5-|
D|-------------------------------------------------------|
A|-------------------------------------------------------|
E|-------------------------------------------------------|


chorus
e|--------------------------------------------------------------------|
B|--------------------------------------------------------------------|
G|-5555-8888------------5555-8888-10101010-------5555-8888------------|
D|-5555-8888-8888-55555-5555-8888-10101010-88888-5555-8888-8888-55555-|
A|-3333-6666-8888-55555-3333-6666--8-8-8-8-88888-3333-6666-8888-55555-|
E|-----------6666-33333--------------------66666-----------6666-33333-|

e|-------------|
B|-------------|
G|-------------|
D|-6-6-66-66-5-|
A|-6-6-66-66-5-|
E|-4-4-44-44-3-|
[ Tab from: http://www.guitartabs.cc/tabs/p/pulley/insects_destroy_tab.html ]
pre-verse B guitar one
e|---------------------------------------------------------------------|
B|---------------------------------------------------------------------|
G|-555555555555555555-88888888------------555555555555555555-----------|
D|-555555555555555555-88888888-8888888888-555555555555555555-555555555-|
A|-333333333333333333-66666666-8888888888-333333333333333333-555555555-|
E|-----------------------------6666666666--------------------333333333-|

e|------------------------------|
B|------------------------------|
G|-----------5-55555555555555-5-|
D|-888888888-5-55555555555555-5-|
A|-888888888-3-33333333333333-3-|
E|-666666666--------------------|
pm             ........_____

pre-verse B guitar two
e|-------------------------------------------------------------------|
B|-------------------------------------------------------------------|
G|-5-5-7-8-7-88-10-8-7-5--5-5-7-8--88-----8-5--5-5-7-8-7-88-10-8-7-5-|
D|------------------------------------8-8----------------------------|
A|-------------------------------------------------------------------|
E|-------------------------------------------------------------------|

e|-------------------|
B|-------------------|
G|-------------------|
D|-5-555555-8-888888-|
A|-------------------|
E|-------------------|

verse guitar one
verse guitar two (comes in at 1:38)
chorus

interlude A
e|---------------------------------------------------------------------|
B|---------------------------------------------------------------------|
G|-555-----55-888-------555-----55-888-------88888888-1010101010101010-|
D|-555-6-5-55-888-88888-555-6-5-55-888-88888-88888888-1010101010101010-|
A|-333-----33-666-88888-333-----33-666-88888-66666666--8-8-8-8-8-8-8-8-|
E|----------------66666----------------66666---------------------------|

e|---------------------------------------------------------------------|
B|---------------------------------------------------------------------|
G|-555-----55-888-------555-----55-888-------88888888-1212121212121212-|
D|-555-6-5-55-888-88888-555-6-5-55-888-88888-88888888-1212121212121212-|
A|-333-----33-666-88888-333-----33-666-88888-66666666-1010101010101010-|
E|----------------66666----------------66666---------------------------|

bridge
e|--------------------------------------------------------------------|
B|-----4-------6--------3-------------------4-------6--------3--------|
G|------5-------5--------5-------------------5-------5--------5-------|
D|-------5-------5--------5-------------------5-------5--------5------|
A|-3-3-----8-8-----\6-6-----\1-1-6-55-5\3-3-----8-8-----\6-6-----\1-1-|
E|--------------------------------------------------------------------|

e|----------------------------------------------------------------------|
B|------------4-------6--------3-------------------4-------6--------3---|
G|-------------5-------5--------5-------------------5-------5--------5--|
D|--------------5-------5--------5-------------------5-------5--------5-|
A|-6-55-5\3-3-----8-8-----\6-6-----\1-1-6-55-5\3-3-----8-8-----\6-6-----|
E|----------------------------------------------------------------------|

e|---------------------|
B|---------------------|
G|---------------------|
D|-5555555555555555555-
A|-5555555555555555555-
E|-3333333333333333333-
pm .........._______

interlude B
e|---------------------------------------|
B|---------------------------------------|
G|-55----55-----------55----55-----88----|
D|-55-33-55-666-88-66-55-33-55-666-88-88-|
A|-33-33-33-666-88-66-33-33-33-666-66-88-|
E|----11----444-66-44----11----444----66-|

outro
e|---------------------------------------------------------------------|
B|---------------------------------------------------------------------|
G|-5555-8888------------5555-8888-10101010-------5555-8888-------------|
D|-5555-8888-8888-55555-5555-8888-10101010-88888-5555-8888-8888-55555--|
A|-3333-6666-8888-55555-3333-6666--8-8-8-8-88888-3333-6666-8888-55555--|
E|-----------6666-33333--------------------66666-----------6666-33333--|

e|--------------------------------------------------------------------|
B|--------------------------------------------------------------------|
G|-5555-8888------------5555-8888-10101010-------5555-8888------------|
D|-5555-8888-8888-55555-5555-8888-10101010-88888-5555-8888-8888-55555-|
A|-3333-6666-8888-55555-3333-6666--8-8-8-8-88888-3333-6666-8888-55555-|
E|-----------6666-33333--------------------66666-----------6666-33333-|

e|-------------|
B|-------------|
G|-------------|
D|-6-6-66-66-5-|
A|-6-6-66-66-5-|
E|-4-4-44-44-3-|

thats it...
email at el_diablo7th@freenet.de
cYa
Comments