Pulley - Four Walls Chords & Tabs

 

Four Walls Chords & Tabs

Pulley Chords & Tabs

Version: 1 Type: Tab 0 ratings
1 star 2 stars 3 stars 4 stars 5 stars
comments

Four Walls Tab

FOUR WALLS - Pulley


By: Jason (CIV96@aol.com)

Dropped D Tuning
[ Tab from: http://www.guitartabs.cc/tabs/p/pulley/four_walls_tab.html ]
INTRO/VERSE:
-----------------|-----------------|-----------------|-----------------|
-----------------|-----------------|-----------------|-----------------|
-----------------|-----------------|-----------------|-----------------|
-----------------|-----------------|-----------------|-0-0-0-0---------|
-0-0-0-0-4-4-4-4-|-5-5-5-5-0-0-0-0-|-4-4-4-4-3-3-3-3-|-2-2-2-2-0-0-0-0-|
-0-0-0-0-7-7-7-7-|-5-5-5-5-0-0-0-0-|-7-7-7-7-6-6-6-6-|---------0-0-0-0-|
p.m.   .....   .......   .....   .......   .....   .......   .....   ..
                         ____________________________________
PRE-CHORUS(?):                1., 3.
------------------|-----------------|-----------------|------------------|
------------------|-----------------|-----------------|------------------|
*-----------------|-----------------|-----------------|-----------------*|
*-2-2-2-2-2-2-2-2-|-3-3-3-3-3-3-3-3-|-----------------|-5-5-5-5-5-5-5-3-*|
--0-0-0-0-0-0-0-0-|-1-1-1-1-1-1-1-1-|-3-3-3-3-3-3-3-3-|-3-3-3-3-3-3-3-1--|
------------------|-----------------|-3-3-3-3-3-3-3-3-|------------------|
____________________________________ ___________________________________
2.                       4.
-----------------|------------------|-----------------|-----------------|
-----------------|------------------|-----------------|-----------------|
-----------------|-----------------*|-----------------|-----------------|
-----------------|-----------------*|-5-5-5-5-5-5-5-5-|-5-5-5-5-5-5-5-5-|
-3-3-3-3-3-3-3-3-|-5-5-5-5-5-5-5-5--|-3-3-3-3-3-3-3-3-|-3-3-3-3-3-3-3-3-|
-3-3-3-3-3-3-3-3-|-5-5-5-5-5-5-5-5--|-----------------|-----------------|
          ___________ __________
CHORUS(?):     1.          2.
--------|------|-----|-----|-----|----|
--------|------|-----|-----|-----|----|
*-------|------|-----|----*|-----|----|
*-------|------|-----|----*|-----|----|
--12-11-|-10-9-|-5-8-|-7---|-5-7-|-0--|
--12-11-|-10-9-|-5-8-|-7---|-5-7-|-0--|
                                     _______________
CHORUS LEAD (this is probably off):                 1.
------------------|-----------------|-----------------|---------------|
--8---8---7---7---|-5---5---7---7---|-8---8---7---7---|-----5---------|
*---7---7---7---7-|---7---7---7---7-|---7---7---7---7-|-6-7---7-6----*|
*-----------------|-----------------|-----------------|--------------*|
------------------|-----------------|-----------------|---------------|
------------------|-----------------|-----------------|---------------|
_______ _____________
2., 4.    3.
-------|-------------|
-------|-------------|
-7----*|-6---7-6----*|
------*|-------------|
-------|-------------|
-------|-------------|

RECAP ("Hands on the clock, and they're moving backwords"):   LAST CHORD:
-----------------|-----------------|                    -------
-----------------|-----------------|                    -/3----
-----------------|-----------------|                    -\2----
-0-0-0-0-7-7-7-7-|-5-5-5-5-0-0-0-0-|                    -/0----
-0-0-0-0-7-7-7-7-|-5-5-5-5-0-0-0-0-|                    -\0----
-0-0-0-0-7-7-7-7-|-5-5-5-5-0-0-0-0-|                    -/0----
Comments