Pulley - Eyes Open Wide Chords & Tabs

 

Eyes Open Wide Chords & Tabs

Pulley Chords & Tabs

Version: 1 Type: Tab 0 ratings
1 star 2 stars 3 stars 4 stars 5 stars
comments

Eyes Open Wide Tab

EYES OPEN WIDE - Pulley


By: jeff    pulley@punk.zzn.com
http://www.punkbands.com/pulley

intro: guitar 1
|----------------------------------------------|----------------------
|----------------------------------------------|----------------------
|----------------------------------------------|----------------------
|-5-7-9-9-9-9-9-10----5-7-9-9-9-9-9-9-12-10-12-|-5-7-9-9-9-9-9-10-----
|-5-7-9-9-9-9-9-10-10-5-7-9-9-9-9-9-9-12-10-12-|-5-7-9-9-9-9-9-10-10--
|-3-5-7-7-7-7-7--8-10-3-5-7-7-7-7-7-7-10--8-10-|-3-5-7-7-7-7-7--8-10--
|-------------------8--------------------------|------------------8>7-
play above then reapeat bit in bars then play

|------------------------------------
|------------------------------------
|-5-7-9-9-9-9-9-10-------------------
|-5-7-9-9-9-9-9-10-10-10-10-10-9-9-9-
|-3-5-7-7-7-7-7----10-10-10-10-9-9-9-
|-------------------8--8--8--8-7-7-7-

guitar 2 plays this once it speeds up
|-------------------------------------------------------------------------------------
|-------------------------------------------------------------------------------------
|-12-10-9-9-9-9-9-10----12-10-9-9-9-9-9----------12-10-9-9-9-9-9-10-------------------
|-12-10-9-9-9-9-9-10-10-12-10-9-9-9-9-9-12-10-12-12-10-9-9-9-9-9-10-10-10-10-10-9-9-9-
|-10--8-7-7-7-7-7--8-10-10--8-7-7-7-7-7-12-10-12-10--8-7-7-7-7-7--8-10-10-10-10-9-9-9-
|---------------------8-----------------10--8-12---------------------8--8--8--8-7-7-7-
[ Tab from: http://www.guitartabs.cc/tabs/p/pulley/eyes_open_wide_tab.html ]
verses: . underneath chord: palm mute
|-------------------------------------------------
|------------------------------------------------- x 4
|-5-5-5-5-5-5-------------------------------------
|-5-5-5-5-5-5-5-5-5-5-5-5-3-3-3-3-3-3-5-5-5-5-5-5-
|-3-3-3-3-3-3-5-5-5-5-5-5-3-3-3-3-3-3-5-5-5-5-5-5-
|-------------3-3-3-3-3-3-1-1-1-1-1-1-3-3-3-3-3-3-
  .   . .     .   . .     .   . .     .   . .
on the 3rd and 4th time play without palm mutes.

bit between verse:
|------------------------------
|------------------------------
|----10---------10-5-5-5-4-4-4-
|-10-10-10-5-10--8-5-5-5-4-4-4-
|-10--8-10-5-10--8-3-3-3-2-2-2-
|--8-----8-3--8----------------

eyes open eyes open..........
|----------------------------------------------------------
|----------------------------------------------------------
|-10-10-10-10-10-10-10-------------------------------------
|-10-10-10-10-10-10-10-10-x-x-10-10-x-x-10-10-10-10-x-x-10-
|--8--8--8--8--8--8--8-10-x-x-10-10-x-x-10-10-10-10-x-x-10-
|-----------------------8-x-x--8--8-x-x--8--8--8--8-x-x--8-

what can I do?............
|-------------------------------------------------------------------------
|-------------------------------------------------------------------------
|-10-10-10-10-10-10-10-10-9-9-9-9-9-9-9-9-7-7-7-7-7-7-7-7-5-5-5-5-5-5-5-5-
|-10-10-10-10-10-10-10-10-9-9-9-9-9-9-9-9-7-7-7-7-7-7-7-7-5-5-5-5-5-5-5-5-
|--8--8--8--8--8--8--8--8-7-7-7-7-7-7-7-7-5-5-5-5-5-5-5-5-3-3-3-3-3-3-3-3-
|-------------------------------------------------------------------------

solo/riff
|-------------------------------        --------------------------------
|------------------------------- play 3 --------------------------------
|---------9-10-10-12-12-12-10-9- times  -12-12-12-10-9-9-12-12-12-12-12-
|-9-10-10----------------------- then   --------------------------------
|-------------------------------        --------------------------------
|-------------------------------        --------------------------------
play another three times then end on this note
|----
|----
|-12-
|----
|----
|----

commentscorrectionsemailmepulley@punk.zzn.com
Comments