Pulley - Dogs Life Chords & Tabs

 

Dogs Life Chords & Tabs

Pulley Chords & Tabs

Version: 1 Type: Tab 0 ratings
1 star 2 stars 3 stars 4 stars 5 stars
comments

Dogs Life Tab

DOG'S LIFE - Pulley

By: jeff   pulley@punk.zzn.com 
http://www.punkbands.com/pulley

Intro: 
|-----------------------------------------------------------------
|-----------------------------------------------------------------
|-------7-7-7-7-7-6-6-6-----------------7-7-6-6-6-------6---------
|-7-7-7-5-5-5-5-5-4-4-4-9-9-9-9-9-7-7-7-5-5-4-4-4-9-9-9-4-9-9-7-7- 
|-5-5-5-----------------7-7-7-7-7-5-5-5-----------7-7-7---7-7-5-5- 
|-----------------------------------------------------------------

Verses:  (palm muted) 
|-------------------------     ----------------- 
|-------------------------     ----------------- x 2 first time x 1 2nd time 
|-7-7-7-7-7-7-5-5-5-5-5-5- x 3 ---------9-9-9-9- (this bit is'nt 
|-7-7-7-7-7-7-5-5-5-5-5-5-     -9-9-9-9-9-9-9-9- palm muted) 
|-5-5-5-5-5-5-3-3-3-3-3-3-     -9-9-9-9-7-7-7-7- 
|-------------------------     -7-7-7-7---------
[ Tab from: http://www.guitartabs.cc/tabs/p/pulley/dogs_life_tab.html ]
Pre Chorus: 
|---------------------------------------
|--------------------------------------- 
|-6-6-6-6-6----------6-6-6-6-6-6-------- x 2 
|-4-4-4-4-4-7-7-7-7-4-4-4-4-4-4-9-9-9-9- 
|-----------5-5-5-5-------------7-7-7-7- 
|---------------------------------------

Chorus/Riff: 
|-------------------------------------------------------------------------------------
|-------------------------------------------------------------------------------------
|-6-6-9-9-9-9-7-12-12-11-11-11-6-6-7-9-9-9-9-------------6-6-9-9-9-9-7-12-12-11-11-11-
|-4-4-7-7-7-7-5-10-10--9--9--9-4-4-7-7-7-7-7-9-9-7-7-6-6------------------------------ 
|--------------------------------------------7-7-5-5-4-4------------------------------
|-------------------------------------------------------------------------------------

|---------------- 
|----------------
|-6-6------------
|-4-4-9-9-11-9-7- 
|-----7-7-9--7-5- 
|----------------
Comments