Pulley - Bad Reputation Chords & Tabs

 

Bad Reputation Chords & Tabs

Pulley Chords & Tabs

Version: 1 Type: Tab 0 ratings
1 star 2 stars 3 stars 4 stars 5 stars
comments

Bad Reputation Tab

Artist - Pulley
Song - Bad Reputation
Tuning - regular
100% correct

Ok pulley has 2 guitars so I used a combo of both so it sounds good and is very fun to play here ya go!

Tabbed by Casey Barking


	Intro riff - palm muted
e |-----------------------------------------------------------------|
B |-----------------------------------------------------------------|
G |--555---444---777---444---55--------555---444---777---444---5555-| X2
D |-------------------------------55--------------------------------|
A |-----------------------------------------------------------------|
E |-----------------------------------------------------------------|
    D (or power chord)the real D chord sounds better
e |---2-------------------------------------------------------------|
B |---3----------------------------------------------------3--------|
G |---2-------------------------------------------------------------|
D |-----------------------------------------------------------------|
A |-----------------------------------------------------------------|
E |-----------------------------------------------------------------|


	riff #1 X2 from pick slide to x2
e |------------------------------------------------------------------|
B |------------------------------------------------------------------|
G |---------------------------12--12--12--12-12-12-12-12-------------|
D |---------------------------12--12--12--12-12-12-12-12-12-12-12-12-|
A |- pick slide pick slide ---10--10--10--10--9--9--9-9--12-12-12-12-|
E |------------------------------------------------------------------|

e |-----------------------------------------------------------------|
B |-----------------------------------------------------------------|
G |12--12--12--12---12-12-12-12-12-12-12-12--7-7-7-7--5-5-5-5-------| X2
D |12--12--12--12---12-12-12-12-12-12-12-12-------------------------|
A |-9---9---9---9---10-10-10-10--9--9--9--9--5-5-5-5--3-3-3-3-------|
E |-----------------------------------------------------------------|

riff #2 a long long time ago. . . . (palm Muted)
e |----------------------------------------------------------------|
B |----------------------------------------------------------------|
G |--2-2-2-2--44-4-4------5555-------2-2-2-2-44-4-4----------------|
D |--4-4-4-4--55-5-5-X3---5555-5555--4-4-4-4-55-5-5----------------|X3 excluding
A |--5-5-5-5--55-5-5------3333-5555--5-5-5-5-55-5-5 power-chords--|
E |----------------------------3333--------------------------------|
	Cherokee people Cherokee nation . . .
e |--------------------------------------------------------------------|
B |--------------------------------------------------------------------|
G |-9-9-9-9-99-12-12-12-12---------------------------------------------|
D |--------------------------------------------------------------------|
A |-7-7-7-7-77-10-10-10-10---------------------------------------------|
E |--------------------------------------------------------------------|

[ Tab from: http://www.guitartabs.cc/tabs/p/pulley/bad_reputation_tab.html ]
e |----------22222--3-2---3-2--------------22222-------------------|
B |----------33333------3-----3------------33333-------------------|
G |5555------22222---------------5555------22222-----4-4-----------|
D |5555-5555---------------------5555-5555-------------------------|
A |3333-5555---------------------3333-5555-------000-2-2-----------|
E |-----3333--------------------------3333-------------------------|

e |----------22222--3-2---3-2-------------------------------------------|
B |----------33333------3-----3------------------------76--76-----------|
G |5555------22222---------------------------5-77-5-77-767-767-5-77-577-|
D |5555-5555---------------------22222-5555--5-77-5-77-547-547-5-77-577-|
A |3333-5555---------------------22222-5555--3-55-3-55---5---5-3-55-355-|
E |-----3333---------------------00000-3333-----------------------------|


Now repeat riff #2 EXCEPT ON THE LAST PART OF IT CHANGE IT TO THIS BELOW JUST LISTEN TO 
SONG YOULL FIGURE IT OUT
e |----------------------------------------------|
B |----------------------------------------------|
G |-5-77-5-77------------------------------------|
D |-5-77-5-77------------------------------------|
A |-3-55-3-55--5555555---------------------------|
E |------------5555555---------------------------|


e |------------------------------------------------------------------|
B |------------------------------------------------------------------|
G |-12--12--12--12-12-12-12-12---------------------------------------|
D |-12--12--12--12-12-12-12-12-12-12-12-12---------------------------|
A |-10--10--10--10--9--9--9-9--12-12-12-12---------------------------|
E |------------------------------------------------------------------|

e |-----------------------------------------------------------------|
B |-----------------------------------------------------------------|
G |12--12--12--12---12-12-12-12-12-12-12-12--7-7-7-7--5-5-5-5-------|
D |12--12--12--12---12-12-12-12-12-12-12-12-------------------------|
A |-9---9---9---9---10-10-10-10--9--9--9--9--5-5-5-5--3-3-3-3-------|
E |-----------------------------------------------------------------|

   2:24 OHH WHAT comes around will go around. . .
e |----------22222-------------------------22222--------------------|
B |----------33333-------------------------33333--------------------|
G |5555------22222---------------5555------22222--------------------|
D |5555-5555---------------------5555-5555--------------------------|
A |3333-5555---------------------3333-5555--------------------------|
E |-----3333--------------------------3333--------------------------|


e |---------------222222-----------------| Now go to the end!
B |---------------333333-----------------|
G |---------------222222-----------------|
D |---22222-5555---------22222-5555------|
A |---22222-5555---------22222-5555------|
E |---00000-3333---------00000-3333------|


ENDing
e |----------------------------------------------|
B |----------------------------------------------|
G |-5-77-5-77------------------------------------|
D |-5-77-5-77------------------------------------|
A |-3-55-3-55--5555555---------------------------|
E |------------5555555---------------------------|

questions or comments email @ cb_dog@hotmail.com
Comments