Pugh Rogefeldt - Jag Ar En Liten Gosse Chords & Tabs

 

Jag Ar En Liten Gosse Chords & Tabs

Pugh Rogefeldt Chords & Tabs

Version: 1 Type: Tab 0 ratings
1 star 2 stars 3 stars 4 stars 5 stars
comments

Jag Ar En Liten Gosse Tab

Tjena!
Lyssna på låten och matcha sen ihop kompet som jag lagt in så låter det skit
bra :D   Har inte listat ut solot än.... Maila gärna med synpunkter...
tjock_smock@hotmai.com 


INTRO
e|---------------------------------------------------------------------------|
B|---------1-1-0-1-3-1-1-0---------------------------------------------------|
G|---------------------------------------------------------------------------|
D|---------------------------------------------------------------------------|
A|----0----------------------------------------------------------------------|
E|--0------------------------------------------------------------------------|

[ Tab from: http://www.guitartabs.cc/tabs/p/pugh_rogefeldt/jag_ar_en_liten_gosse_tab.html ]
VERS
e|---------------------------------------------------------------------------|
B|---------1-1-0-1-3-3---0-1-3-5-5-3-1-0-------0-1-3-3-1-0-------------------|
G|---------------------2-----------------2-0-2-------------0-2---------------|
D|---------------------------------------------------------------------------|
A|----0----------------------------------------------------------------------|
E|--0------------------------------------------------------------------------|

e|---------------------------------------------------------------------------|
B|----0-1-3-5-5-3-1-0-------0-1-3-3-1-0--------------------------------------|
G|--2-----------------2-0-2-------------0-2----------------------------------|
D|---------------------------------------------------------------------------|
A|---------------------------------------------------------------------------|
E|---------------------------------------------------------------------------|



REFRÄNG
e|--5-3-5-2-5-0--0--------------5-3-5-2-5-0--0-------------------------------|
B|-----------------3-1-1-0---------------------3-1-1-0-----------------------|
G|-------------------------0-2-------------------------0-2-------------------|
D|---------------------------------------------------------------------------|
A|---------------------------------------------------------------------------|
E|---------------------------------------------------------------------------|

Så här lirar ni:

INTRO x3
VERS
REFRÄNG
INTRO x3
VERS 
REFRÄNG
INTRO x3
VERS
REFRÄNG

Av Robin Sjölund
Comments