Pug Jelly - Come Home Soon Chords & Tabs

 

Come Home Soon Chords & Tabs

Pug Jelly Chords & Tabs

Version: 1 Type: Tab 0 ratings
1 star 2 stars 3 stars 4 stars 5 stars
comments

Come Home Soon Tab

   
-------------------------------------------------------------------------------
			    COME HOME SOON - Pug Jelly
-------------------------------------------------------------------------------
Tabbed by: Janice/Cloudchaser


Intro Riff x 2

e|----------------------------------------------------------------------|
b|----8---8---8---8------8---8---8---6/5/6/5----------------------------|
g|--5---55--55--55--5/4/5--55--55--55-------7/5-------------------------|
d|----------------------------------------------------------------------|
a|----------------------------------------------------------------------|
E|----------------------------------------------------------------------|

*other guitar play Verse Riff x 2
__________________________________________________________________________________

Verse Riff x 2

It's been .....     missing....      Never really...  thought you...
  C                 B                A                G
e|----------------------------------------------------------------------|
b|----------------------------------------------------------------------|
g|-5-5-5-5-5-5-5-5--4-4-4-4-4-4-4-4--2-2-2-2-2-2-2-2--------------------|
d|-5-5-5-5-5-5-5-5--4-4-4-4-4-4-4-4--2-2-2-2-2-2-2-2--5-5-5-5-5-5-5-5---|
a|-3-3-3-3-3-3-3-3--2-2-2-2-2-2-2-2--0-0-0-0-0-0-0-0--5-5-5-5-5-5-5-5---|
E|----------------------------------------------------3-3-3-3-3-3-3-3---|
   #                #                #                #

So much in........  such a little time
  F                 G                         C
e|----------------------------------------------------------------------|
b|----------------------------------------------------------------------|
g|--------------------------------------------5--55--55--55-------------|
d|-3-3-3-3-3-3-3-3---5-5-5-5-5-5-5-5----------5--55--55--55-------------|
a|-3-3-3-3-3-3-3-3---5-5-5-5-5-5-5-5----------3--33--33--33-------------|
E|-1-1-1-1-1-1-1-1---3-3-3-3-3-3-3-3------------------------------------|
   #                 #                        #  ##  ##  ##

*second verse riff, other guitar play # distorted
___________________________________________________________________________________

Chorus Riff A x 3

I think... falling  down               down      down      down
  F                 G                  C         B         A
e|----------------------------------------------------------------------|
b|----------------------------------------------------------------------|
g|-------------------------------------5-5-5-5---4-4-4-4---2-2-2-2------|
d|-3-3-3-3-3-3-3-3---3-3-3-3-3-3-3-3---5-5-5-5---4-4-4-4---2-2-2-2------|
a|-3-3-3-3-3-3-3-3---5-5-5-5-5-5-5-5---3-3-3-3---2-2-2-2---0-0-0-0------|
E|-1-1-1-1-1-1-1-1---5-5-5-5-5-5-5-5------------------------------------|
   #                 #                 #         #         #

Chorus Riff B
I think	            I'm falling in 	     love
 F                 G                         C
e|----------------------------------------------------------------------|
b|----------------------------------------------------------------------|
g|--------------------------------------------5--55--55--55-------------|
d|-3-3-3-3-3-3-3-3---5-5-5-5-5-5-5-5----------5--55--55--55-------------|
a|-3-3-3-3-3-3-3-3---5-5-5-5-5-5-5-5----------3--33--33--33-------------|
E|-1-1-1-1-1-1-1-1---3-3-3-3-3-3-3-3------------------------------------|
   #                 #                        #  ##  ##  ##

*other guitar play # distorted
___________________________________________________________________________________

Mini Solo
[ Tab from: http://www.guitartabs.cc/tabs/p/pug_jelly/come_home_soon_tab.html ]
  C
e|----------------------------------------------------------------------|
b|----------------------------------------------------------------------|
g|------------2/4/5---5-------------------------------------------------|
d|------2-3-5-------5-5-------------------------------------------------|
a|--3-5-----------------------------------------------------------------|
E|----------------------------------------------------------------------|

____________________________________________________________________________________

Verse Riff x 2

Chorus Riff A x 3

Chorus Riff B x 3
____________________________________________________________________________________

Pre-Bridge Riff
   C         B         Bb        A
e|----------------------------------------------------------------------|
b|----------------------------------------------------------------------|
g|-5-5-5-5---4-4-4-4---3-3-3-3---2-2-2-2--------------------------------|
d|-5-5-5-5---4-4-4-4---3-3-3-3---2-2-2-2--------------------------------|
a|-3-3-3-3---2-2-2-2---1-1-1-1---0-0-0-0--------------------------------|
E|----------------------------------------------------------------------|
   #         #         #         #

*other guitar play # distorted
____________________________________________________________________________________

Bridge x 3

  F                                    G
e|-----------------------------------------------------------------------|
b|-----------------------------------------------------------------------|
g|-----------------------------------------------------------------------|
d|-3-3-3-3-3-3-3-3-3-3-3-3-3-3-3-3-3---5-5-5-5-5-5-5-5-5-5-5-5-5-5-5-5-5-|
a|-3-3-3-3-3-3-3-3-3-3-3-3-3-3-3-3-3---5-5-5-5-5-5-5-5-5-5-5-5-5-5-5-5-5-|
E|-1-1-1-1-1-1-1-1-1-1-1-1-1-1-1-1-1---3-3-3-3-3-3-3-3-3-3-3-3-3-3-3-3-3-|
   #                                   #

*other guitar play # distorted
____________________________________________________________________________________

Solo


e|--------------------------------------------------------------------------------------|
b|---------13/12-13------------13/12-----10--10-10-10-8----------8----------------------|
g|----9-12-------------9-11/12-------12-----------------10-9/10---10-9------------------|
d|-10---------------10-------------------------------------------------12-10------------|
a|--------------------------------------------------------------------------------------|
E|--------------------------------------------------------------------------------------|

e|---------------------------------------------------------------------------------------|
b|---------------------------------10-8-------10----13-12-14/13--13-15-17-17-15-13-12-13-|
g|------------------------9-9-12-9-------9-12---12---------------------------------------|
d|-10----------12-10-9/10----------------------------------------------------------------|
a|-----10-10-10--------------------------------------------------------------------------|
E|---------------------------------------------------------------------------------------|

e|-------------12/12/12/12--12----------------------------------------------------------|
b|-13-12-13-15--------------13----------------------------------------------------------|
g|--------------------------------------------------------------------------------------|
d|--------------------------------------------------------------------------------------|
a|--------------------------------------------------------------------------------------|
E|--------------------------------------------------------------------------------------|

*other guitar play verse riff x 2
____________________________________________________________________________________
Comments