Puffy Amiyumi - Teen Titans Theme Chords & Tabs

 

Teen Titans Theme Chords & Tabs

Puffy Amiyumi Chords & Tabs

Version: 2 Type: Tab 0 ratings
1 star 2 stars 3 stars 4 stars 5 stars
comments

Teen Titans Theme Tab

   
Such a catchy song.  I usually can't stomache j-pop, but here's an exception =)


     E                    A              E           E                   A              B
e|---0----0----3----7-----5-----3----0-------0---|---0-----0----3---5----7--5----3--5---7---|
B|---------------------------------------3-------|------------------------------------------|
G|-----------------------------------------------|------------------------------------------|
D|-----------------------------------------------|------------------------------------------|
A|-----------------------------------------------|------------------------------------------|
E|-----------------------------------------------|------------------------------------------|
    When there's trou-ble you know who to call,      From their tow-er they can see it all!  

     A                 E                   A                      E
e|---5----5-----5--3---0---0------0----|---5---5----5---3---3-----0---0-------0--------|
B|-----------------------------3-------|----------------------------------3------------|
G|-------------------------------------|-----------------------------------------------|
D|-------------------------------------|-----------------------------------------------|
A|-------------------------------------|-----------------------------------------------|
E|-------------------------------------|-----------------------------------------------|
    When there's e-vil on the a-ttack,    You can rest kno-wing they got your back,    

     E              G    A               B     E    G    E
e|---0----0---0-----3----5---3---5---6---7--|--0----3----0------------------------|
B|------------------------------------------|-------------------------------------|
G|------------------------------------------|-------------------------------------|
D|------------------------------------------|-------------------------------------|
A|------------------------------------------|-------------------------------------|
E|------------------------------------------|-------------------------------------|
    When the world needs her-oes on pa-trol    Teen Tit-ans    GO!

     E                A            E                E              A                 B
e|---0---0----3---7---5---3----0-------0---------|--0---0--3---5---7--5----3---5-----7------|
B|---------------------------------3-------------|------------------------------------------|
G|-----------------------------------------------|------------------------------------------|
D|-----------------------------------------------|------------------------------------------|
A|-----------------------------------------------|------------------------------------------|
E|-----------------------------------------------|------------------------------------------|
   With their su-per pow-ers they un-ite,           Ne-ver met a vil-lan that they liked!    
[ Tab from: http://www.guitartabs.cc/tabs/p/puffy_amiyumi/teen_titans_theme_tab_ver_2.html ]
      A              E                     A                E
e|----5-----5----5---5---3---0-------0-|---5---5---5---5----3----0---0--------0--------|
B|-------------------------------3-----|----------------------------------3------------|
G|-------------------------------------|-----------------------------------------------|
D|-------------------------------------|-----------------------------------------------|
A|-------------------------------------|-----------------------------------------------|
E|-------------------------------------|-----------------------------------------------|
    They've got the bad guys on the run, They ne-ver stop until the job gets done,  
     
     E             G   A               B        E    G    E
e|---0----0---0----3---5---3---5---6---7----|---0----3----0-----------------------|
B|------------------------------------------|-------------------------------------|
G|------------------------------------------|-------------------------------------|
D|------------------------------------------|-------------------------------------|
A|------------------------------------------|-------------------------------------|
E|------------------------------------------|-------------------------------------|
    when the world is lo-sing all con-trol,    Teen Tit-ans    GO!


e|---5---3---5----3----5----3---0---0----------0--|--5---3---5----3---0---0---0-------------|
B|---------------------------------------3--------|-----------------------------------------|
G|------------------------------------------------|-----------------------------------------|
D|------------------------------------------------|-----------------------------------------|
A|------------------------------------------------|-----------------------------------------|
E|------------------------------------------------|-----------------------------------------|
    If your heart is black, you bet-ter watch out,   You can-not es-cape the team.           


e|--5----3----5-----3-----5-----3---0-0-----0---|---5-------3------5----3----5----3---7-----|
B|---------------------------------------3------|-------------------------------------------|
G|----------------------------------------------|-------------------------------------------|
D|----------------------------------------------|-------------------------------------------|
A|----------------------------------------------|-------------------------------------------|
E|----------------------------------------------|-------------------------------------------|
   When they catch you, there won't be a-ny doubt  You've   been   bea-ten   by the teens....


e|---5---3----5---3---7---------------------|T-E-E-N!  T-I-T-A-N-S!  TEEN TITANS!  LET'S GO!
B|------------------------------------------|T-E-E-N!  T-I-T-A-N-S!  TEEN TITANS!  LET'S GO!
G|------------------------------------------|T-E-E-N!  T-I-T-A-N-S!  TEEN TITANS!  LET'S GO!
D|------------------------------------------|T-E-E-N!  T-I-T-A-N-S!  TEEN TITANS!  LET'S GO!
A|------------------------------------------|
E|------------------------------------------|
  ..bea-ten   by the teens...........


e|---0----0----3----7-----5-----3----0-------0---|---0-----0----3---5----7--5----3--5---7---|
B|---------------------------------------3-------|------------------------------------------|
G|-----------------------------------------------|------------------------------------------|
D|-----------------------------------------------|------------------------------------------|
A|-----------------------------------------------|------------------------------------------|
E|-----------------------------------------------|------------------------------------------|
    When there's trou-ble you know who to call,      From their tow-er they can see it all!  


e|----5---5----5---3---0---0------0----|---5---5----5---3---3-----0---0-------0--------|
B|-----------------------------3-------|----------------------------------3------------|
G|-------------------------------------|-----------------------------------------------|
D|-------------------------------------|-----------------------------------------------|
A|-------------------------------------|-----------------------------------------------|
E|-------------------------------------|-----------------------------------------------|
  When there's e-vil on the a-ttack,      You can rest kno-wing they got your back,    


e|---0----0---0-----3----5---3---5---6---7--|--0----3----0---------|--0--0----0-----0---0-|
B|------------------------------------------|----------------------|----------------------|
G|------------------------------------------|----------------------|----------------------|
D|------------------------------------------|----------------------|----------------------|
A|------------------------------------------|----------------------|----------------------|
E|------------------------------------------|----------------------|----------------------|
    When the world needs her-oes on pa-trol    Teen Tit-ans    GO!   One,two,three,four,GO!



~ Victim De Ennui
Comments