Puff Daddy - Come With Me Chords & Tabs

 

Come With Me Chords & Tabs

Puff Daddy Chords & Tabs

Version: 5 Type: Tab 0 ratings
1 star 2 stars 3 stars 4 stars 5 stars
comments

Come With Me Tab

   
Author/Artist: Puff Daddy featuring Jimmy Page
Title: Come With Me
Album: Godzilla Soundtrack
Transcribed by: Ryan
Email: Blur2020@aol.com

This was sent to me by Ryan. I have no idea who he is, but if you want, thank
him for the effort. I personally hate how Puffy doesn't make his own songs and
has to use old classic hits. I also can't believe Jimmy sold out for this crap.
I hate rap, but since this has a rock edge, and everyone requested it, I went 
for it. JUST TO MAKE YOU HAPPY.

I played a few riffs on my Ibanez and it sounds like the old version, so I have
faith in the accuracy of his interpretation of this version.

*DROP D TUNING

Riff A:
E----------------------------------------------------------|
B----------------------------------------------------------|
G---2-2-2---3-3-3--3-3-3---4-4-4--4-4-4---5-5-5--5-5-5---7-|
D---0-0-0---0-0-0--0-0-0---0-0-0--0-0-0---0-0-0--0-0-0---0-|
A----------------------------------------------------------|
D-0-------0--------------0--------------0--------------0---|
                                                                              
Riff B:
E-------------------------------|
B-------------------------------|
G-12-11-10--9-7-6-5-4-3-2-------|
D-12-12-10-10-7-7-5-5-3-3-3-2-0-|
A-------------------------------|
D-------------------------------|
                                                                              
Riff C:
E---------------------------------------------|
B---------------------------------------------|
G-3-3-3---4-4-4--4-4-4---5-5-5--5-5-5---7-7-7-|
D-0-0-0---0-0-0--0-0-0---0-0-0--0-0-0---0-0-0-|
A---------------------------------------------|
D-------0--------------0--------------0-------|
                                                                              
Riff D: He has no idea.
[ Tab from: http://www.guitartabs.cc/tabs/p/puff_daddy/come_with_me_tab_ver_5.html ]
Riff E:
E-------------------------------------|
B-------------------------------------|
G-7-7-7--7-7-7--7-7-7--7-7-7--7-7-7-5-|
D-0-0-0--0-0-0--0-0-0--0-0-0--0-0-0-0-|
A-------------------------------------|
D-------------------------------------|
                                                                              
Riff F:
E|------------------------------------------|
B|------------------------------------------|
G|--------------14\7------------------------|
D|--7---7---7---14\7---7--------------------|
A|--7---7---7---12\5---7---8--7--5--0--3--5-|
E|--5---5---5--------------5----------------|
                                                                              
Riff G:
E------------------------------------------------------------------------------
B-15-15-15--15-15-15----14-14-14--14-14-14--12-12-12--12-12-12--10-10-10-------
G------------------------------------------------------------------------------
D------------------------------------------------------------------------------
A------------------------------------------------------------------------------
D------------------------------------------------------------------------------
                                                                              
E------------------------------------------------------------------------------
B-------15-15-15---------------------------------------------------------------
G-9-9-9----------14-14-14--12-12-12--12-12-12--10-10-10--10-10-10--------------
D-----------------------------------------------------------------9-9-9-9/14---
A------------------------------------------------------------------------------
D------------------------------------------------------------------------------
                                                                              
E----------|
B-15-15-15-|
G----------|
D----------|
A----------|
D----------|

He said that's it. You can figure out the order they go back to, cause I sure as
$#%& don't know how the song really goes.
Comments