Puff Daddy - Come With Me Chords & Tabs

 

Come With Me Chords & Tabs

Puff Daddy Chords & Tabs

Version: 4 Type: Tab 0 ratings
1 star 2 stars 3 stars 4 stars 5 stars
comments

Come With Me Tab

sorry to put down anyone's hard work, but this is the exact same thing as Kasmir by Led Zeppelin.  Here it is:

Intro
----------------------------------------------------------
----------------------------------------------------------
-4-4-4--4-4-4---5-5-5--5-5-5---6-6-6--6-6-6---7-7-7--7-7-7
-x-x-x--x-x-x---x-x-x--x-x-x---x-x-x--x-x-x---x-x-x--x-x-x
-2-2-2--2-2-2---3-3-3--3-3-3---4-4-4--4-4-4---5-5-5--5-5-5
--------------0--------------0--------------0-------------

----------                               /=slide down
----------                               x=mute
---9-9-9--                               ~=let ring
---x-x-x--
---7-7-7--
-0--------

[ Tab from: http://www.guitartabs.cc/tabs/p/puff_daddy/come_with_me_tab_ver_4.html ]
Outro  (I had to guess at this one, since you can't really hear anything but the violins)

------------------------------------------------------
------------------------------------------------------
13-13-13--13-13-13---11-11-11--11-11-11--9-9-9--9-9-9-
xx-xx-xx--xx-xx-xx---xx-xx-xx--xx-xx-xx--x-x-x--x-x-x-
11-11-11--11-11-11---9--9--9---9--9--9---7-7-7--7-7-7-
-------------------0-------------------0--------------

-------------------------------------------------------
-------------------------------------------------------
--7-7-7--7~/13--13-13-13-------------------------------
--x-x-x--x------xx-xx-xx-------------------------------
--5-5-5--5~/11--11-11-11-------------------------------
0------------------------------------------------------

There it is, let me know how you like it.
Comments