Puff Daddy - Come With Me Chords & Tabs

 

Come With Me Chords & Tabs

Puff Daddy Chords & Tabs

Version: 2 Type: Tab 0 ratings
1 star 2 stars 3 stars 4 stars 5 stars
comments

Come With Me Tab

|---------------------------------|
|Title: Come With Me		  |
|Artist: Puff Daddy & Jimmy Paige |
|Album: Godzilla Soundtrack       |
|---------------------------------|



Ok, this song is fairly easy to learn.  Tune the lowest E down to a D, and follow the tab.
The sequence of the entire song is at the bottom of the page so you don't get lost following
along.


*MAIN RIFF

E|---------------------------------------------------------------------------------------|
B|---------------------------------------------------------------------------------------|
G|2-2-2-----2-2-2-----3-3-3-----3-3-3-----4-4-4-----4-4-4-----5-5-5-----5-5-5-----7-7-7--|
D|0-0-0-----0-0-0-----0-0-0-----0-0-0-----0-0-0-----0-0-0-----0-0-0-----0-0-0-----0-0-0--|
A|---------------------------------------------------------------------------------------|
D|-----------------0-------------------0-------------------0-------------------0---------|

[NOTE:  When repeating this riff, play the xx02xx part only 3 times instead of the usual 6
        so that the xx07xx part is played 3 times and keeps the timing balanced.]



*CHORUS LINE [after "... come with me"]

E|-10-10--8--8--5--5--3--3--1----------------------|
B|--8--7--6--5--3--2--1--0--1----------------------|
G|-------------------------------------------------|
D|---------------------------------3P2P0-----------|
A|-------------------------------------------------|
D|-------------------------------------------------|
  REPEAT


*SOLO [after 2nd repeat of chorus]


E|--------5-----------5-----------3-----------3-----------1-----------1------|
B|-----6-----6-----6-----6-----5-----5-----5-----5-----3-----3-----3-----3---|
G|--7-----------7-----------5-----------5-----------3-----------3------------|
D|---------------------------------------------------------------------------|
A|---------------------------------------------------------------------------|
D|---------------------------------------------------------------------------|

E|--------0-----------0------------5-----------5-----------3-----------3-----|
B|-----2-----2-----2-----2------6-----6-----6-----6-----5-----5-----5-----5--|
G|--2-----------2-----------7------------7-----------5-----------5-----------|
D|---------------------------------------------------------------------------|
A|---------------------------------------------------------------------------|
D|---------------------------------------------------------------------------|
[ Tab from: http://www.guitartabs.cc/tabs/p/puff_daddy/come_with_me_tab_ver_2.html ]
E|--------1-----------1-----------0-----------0-----------1-----------1------|
B|-----3-----3-----3-----3-----2-----2-----2-----2-----3-----3-----3-----3---|
G|--3-----------3-----------2-----------2-----------3-----------3------------|
D|---------------------------------------------------------------------------|
A|---------------------------------------------------------------------------|
D|---------------------------------------------------------------------------|

E|--------3-----------3-----------3-----------3-----------3-----------3------|
B|-----5-----5-----5-----5-----5-----5-----5-----5-----5-----5-----5-----5---|
G|--5-----------5-----------5-----------5-----------5-----------5------------|
D|---------------------------------------------------------------------------|
A|---------------------------------------------------------------------------|
D|---------------------------------------------------------------------------|
  GO TO RIFF [NOTE: At the end of the riff, instead of repeating everything 
              play xx07xx over and over, then go to chorus]

SOLO 2 [after 3rd repeat of chorus]

E|---------------------------------------------------------------------------|
B|---------------------------------------------------------------------------|
G|--7---------7------7------7\2------7---------------------------------------|
D|--7---------7------7------7\2------7---------3p2p0-------------------------|
A|--5---------5------5------5\0------5---------------------------------------|
D|---------------------------------------------------------------------------|



*To play the outro, simply play the main riff backwards and end on xx07xx


	|----------------------------------------------------------------------------|
	|			SEQUENCE					     |
        |            Play the entire song in this order				     |
        |     									     |
	|		    RIFF-repeat 4 times					     |
        |                  CHORUS-repeat 2 times				     |
        |                    RIFF-repeat 4 times    				     |
        |                  CHORUS-repeat 2 times 				     |
        |                  SOLO 1-play 1 time all the straight through               |
        |                    RIFF-repeat 3 times then play the last note repeatedly  |
        |                  SOLO 2-repeat 4 times				     |
        |                    RIFF-repeat 6 times				     |
        |                   OUTRO-play 1 time					     |
        |----------------------------------------------------------------------------|



>>-------->  that's all for now.  ┬┐Any questions or comments? Send them to jerrybean@hotmail.com 
Comments