Puff Daddy - Come With Me Chords & Tabs

 

Come With Me Chords & Tabs

Puff Daddy Chords & Tabs

Version: 1 Type: Tab 0 ratings
1 star 2 stars 3 stars 4 stars 5 stars
comments

Come With Me Tab

sorry to burst anyone's bubble, but this is the exact same thing as 
Kashmir by Led Zeppelin.  It goes like this:
                                                      /=slide up
                                                      *=let ring
Intro                                                 x=mute   
------------------------------------------------------------------
------------------------------------------------------------------
-4-4-4--4-4-4---5-5-5--5-5-5---6-6-6--6-6-6---7-7-7--7-7-7---9-9-9
-x-x-x--x-x-x---x-x-x--x-x-x---x-x-x--x-x-x---x-x-x--x-x-x---x-x-x
-2-2-2--2-2-2---3-3-3--3-3-3---4-4-4--4-4-4---5-5-5--5-5-5---7-7-7
--------------0--------------0--------------0--------------0------

Outro (I had to guess on this one, since the only thing you can hear
are the violins)

------------------------------------------------------------------------------
------------------------------------------------------------------------------
13-13-13--13-13-13---11-11-11--11-11-11--9-9-9--9-9-9---7-7-7--7/13*--13-13-13
xx-xx-xx--xx-xx-xx---xx-xx-xx--xx-xx-xx--x-x-x--x-x-x---x-x-x--x-xx---xx-xx-xx
11-11-11--11-11-11---9--9--9---9--9--9---7-7-7--7-7-7---5-5-5--5/11*--11-11-11
-------------------0-------------------0--------------0-----------------------

i did the best i could with the outro, so try not to be too hard on me. 
      thanks.

[ Tab from: http://www.guitartabs.cc/tabs/p/puff_daddy/come_with_me_tab.html ]
Comments