Puff Daddy - Bad Boys 4 Life Chords & Tabs

 

Bad Boys 4 Life Chords & Tabs

Puff Daddy Chords & Tabs

Version: 1 Type: Tab 0 ratings
1 star 2 stars 3 stars 4 stars 5 stars
comments

Bad Boys 4 Life Tab

Bad Boys 4 Life
P. Diddy
Tabbed by Josh Dickey

I dont like rap, just this one guitar line.
The timing isn't right so just listen to the song.

[ Tab from: http://www.guitartabs.cc/tabs/p/puff_daddy/bad_boys_4_life_tab.html ]
E---------------------------------------------------------
B---------------------------------------------------------
G---------------------------------------------------------
D------------------------------------4--2-----------------
A--------4--2--0-----4--2--0---------------2--4--4--2--4--
E--2--2-----------2-----------2--2------------------------

E---------------------------------------------------------
B---------------------------------------------------------
G---------------------------------------------------------
D---------------------------------------------------------
A--4--4--2--0--------4--2--0------------------------------
E--------------2--2-----------2--0--2---------------------
Comments