Puff Daddy - Bad Boy For Life Chords & Tabs

 

Bad Boy For Life Chords & Tabs

Puff Daddy Chords & Tabs

Version: 17 Type: Tab 0 ratings
1 star 2 stars 3 stars 4 stars 5 stars
comments

Bad Boy For Life Tab

P.Diddy: Bad Boys for Life

Tabbed By Ian woooooooooooooo! 
Intro: 

G|----------------------------------------------------------------------|
D|----------------------------------------------------------------------|
A|-------4--2--------4---2--7-------------------------------------------|
E|-2--5--------5--2-----------------------------------------------------|

Verse:
[ Tab from: http://www.guitartabs.cc/tabs/p/puff_daddy/bad_boy_for_life_tab_ver_17.html ]
G|----------------------------------------------------------------------|
D|-------7-4--2--4--2---------------------------------------------------|
A|---------------------4-4-2-4--4-4-2-0-----4--2-0-----0----------------|
E|-2-2----------------------------------2-2----------2---2--------------|

G|----------------------------------------------------------------------|
D|-------7-4--2--4--2---------------------------------------------------|
A|---------------------4-4-2-4--4-4-2-0-----4--2-0-----0----------------|
E|-2-2----------------------------------2-2----------2---2--------------|
Comments