Puff Daddy - Bad Boy For Life Chords & Tabs

 

Bad Boy For Life Chords & Tabs

Puff Daddy Chords & Tabs

Version: 11 Type: Tab 0 ratings
1 star 2 stars 3 stars 4 stars 5 stars
comments

Bad Boy For Life Tab

               Intro
E|-----------------------------------|
B|-----------------------------------|
G|-----------------------------------|
D|---------------------------3-------|
A|--------5--3---------5--3----------|
E|---3--6---------6--3---------------|

[ Tab from: http://www.guitartabs.cc/tabs/p/puff_daddy/bad_boy_for_life_tab_ver_11.html ]
                    The Rest Of the song
E|-------------------------------------------------------------|
B|-------------------------------------------------------------|
G|---------3---------------------------------------------------|
D|-------3----5--3--5------------------------------------------|
A|---------------------5-5--3--5---5--3--5--------5--3---------|
E|-3-3-------------------------------------6--3-3------6--3-3-3|
     Repeat over and over again for as long as the song does.
Comments