Puff Daddy - Bad Boy For Life Chords & Tabs

 

Bad Boy For Life Chords & Tabs

Puff Daddy Chords & Tabs

Version: 10 Type: Tab 0 ratings
1 star 2 stars 3 stars 4 stars 5 stars
comments

Bad Boy For Life Tab

   
#-----------------------------------------------------------------------------#
#-- File created with Instab - http://www.pconline.com/~smcarey/instab.html --#
#-----------------------------------------------------------------------------#

Author/Artist: P Diddy and The Bad Boy Family
Title: Bad Boy For Life
Album: ?
Transcribed by: Ben DiPette
Tune Down a Half Step

Eb
Bb
Gb
Db
Ab
Eb

--------------------------|---------------------------------------------------
--------------------------|---------------------------------------------------
--------------------------|---------------------------------------------------
--------------------------|---------------------------------------------------
----3--5--3--------5--3---|---------------------------------------------------
-3-----------6--3--------6|---------------------------------------------------
    Intro                                                                     
[ Tab from: http://www.guitartabs.cc/tabs/p/puff_daddy/bad_boy_for_life_tab_ver_10.html ]
------------------------------------------------------------------------------
------------------------------------------------------------------------------
------------------------------------------------------------------------------
------8--5-3--5--3--0--0----0--0--0-------------0-----------------------------
--------------------------3----------3-------------3--------------------------
-3-3------------------------------------6--3--3-------6--3--3-----------------
      Repeats Throughout Whole Song, Note  After The First Two Notes on       

----------------------------3-/-5---------------------------------------------
----------------------------3-/-5---------------------------------------------
----------------------------3-/-5---------------------------------------------
----------------------------3-/-5---------------------------------------------
----------------------------3-/-5---------------------------------------------
----------------------------3-/-5---------------------------------------------
 Bottom String, You can do a       Make Sure it Is Somewhat Palm Muted, And   

 not Exact                                                                    

Comments