Puddle Of Mudd - You Dont Know Chords & Tabs

 

You Dont Know Chords & Tabs

Puddle Of Mudd Chords & Tabs

Version: 1 Type: Tab 0 ratings
1 star 2 stars 3 stars 4 stars 5 stars
comments

You Dont Know Tab

"You Don't Know"
Band - Puddle of Mudd (Original Band)
Album - "Stuck" (EP from 1994)

INTRO
E-------------------
B--    B=Bend       |
G--------------------|
D--------------------|
A------5b---------5--|b
D--0-0----0-0-0-0----|

E------------------------|
B------------------------|
G--------7-------------7-|
D--0-0---7---0-0-0-0---7-|
A--0-0---5---0-0-0-0---5-|
D--0-0-------0-0-0-0-----|

*********************************
"I'm so low I sink into the ground..."

PALM MUTED

E----------------------|
B----------------------|
G----------------------|
D----------------------|
A-------------------5--|b
D--0-0-0-0-0-0-0-0-----|

*********************************
"Strung along..."

E------------|
B------------|
G--5---4-----|
D--5---4---0-|
A--3---2---0-|
D----------0-|

E--------------|
B--------------|
G--------------|
D------5-5/7-7-|
A--3/5---------|
D--------------|
[ Tab from: http://www.guitartabs.cc/tabs/p/puddle_of_mudd/you_dont_know_tab.html ]
********************************
"You Don't Know what it's like to live in my world..."

PALM MUTED

E------------------------------------------------------|
B------------------------------------------------------|
G------------------------------------------------------|
D------------------------------------------------------|
A------------------------------------------------------|
D--10--12-12-12--10--12-12-12-10--12-12-12-12-12-12-12-|

******************************
"YOU... DON'T... KNOW... What it's like to live in my world, I said..."

E-----------------------------------------------------------|
B--------------------------------------------------10-------|(bend)
G-----------------------------------------------------------|
D--0-0-0-0-3-5-0-0-0-0-3-5-3-0-0-0-0-3-5-0-0-0-0------------|
A--0-0-0-0-3-5-0-0-0-0-3-5-3-0-0-0-0-3-5-0-0-0-0------------|
D--0-0-0-0-3-5-0-0-0-0-3-5-3-0-0-0-0-3-5-0-0-0-0------------|
Comments