Puddle Of Mudd - She Hates Me Chords & Tabs

 

She Hates Me Chords & Tabs

Puddle Of Mudd Chords & Tabs

Version: 7 Type: Tab 10 ratings
1 star 2 stars 3 stars 4 stars 5 stars
comments

She Hates Me Tab

   
She Hates Me
P U D D L E   O F   M U D D
Tabbed by Aaron Bridgeman (leprosy_head@hotmail.com)

http://bogans.arecool.net

KEY:
pm. = palm mute

INTRO / VERSE:
e|-------------------------------|
B|------------2----------------4-|
G|----1-------2--------3-------4-|
D|----2-------2--------4-------4-|
A|----2----0-----0-----4----2----|
E|-0-----0----------2-----2------|
[ Tab from: http://www.guitartabs.cc/tabs/p/puddle_of_mudd/she_hates_me_tab_ver_7.html ]
LATER VERSE:
e|---------------------------------|
B|---------------------------------|
G|---------------------------------|
D|-------------2---------------4---|
A|-----2---0-0-0-0-----4---2-2-2-2-|
E|-0-0-0-0---------2-2-2-2---------|
pm . .   . . .   . . .   . . .   .

CHORUS:
e|---------------------------------|
B|---------------------------------|
G|---------------------------------|
D|---------2-2-2-2---------4-4-4-4-|
A|-2-2-2-2-0-0-0-0-4-4-4-4-2-2-2-2-|
E|-0-0-0-0---------2-2-2-2---------|

That's all it is. Good song.
Comments