Puddle Of Mudd - She Hates Me Chords & Tabs

 

She Hates Me Chords & Tabs

Puddle Of Mudd Chords & Tabs

Version: 5 Type: Tab 2 ratings
1 star 2 stars 3 stars 4 stars 5 stars
comments

She Hates Me Tab

    


    puddle of mudd
    she hates me
[ Tab from: http://www.guitartabs.cc/tabs/p/puddle_of_mudd/she_hates_me_tab_ver_5.html ]
verse\intro
|--------------------|
|--------------------|
|---1---2--3-4---4-1-|
|--------------------|
|-----0--0-----------|
|--0-0----2----------|
later verse
|-------------------|
|-------------------|
|-------------------|
|--------2-------4--|
|----2-0000--4-2222-|
|--0000----2222-----|
p.m.. ... ... ... .
chorus\outro\bridge
|------------------|
|------------------|
|------2222--4-444-|
|--22222222444-444-|
|--22220000442-222-|
|--0000----22------|
Comments