Puddle Of Mudd - She Hates Me Chords & Tabs

 

She Hates Me Chords & Tabs

Puddle Of Mudd Chords & Tabs

Version: 2 Type: Tab 1 rating
1 star 2 stars 3 stars 4 stars 5 stars
comments

She Hates Me Tab

   
                                 She Hates Me
                                Puddle of Mudd
                           Tabbed by: Brendan O'Mara


    The first part is picked similarly to this.


     F      Bb     G    C
[ Tab from: http://www.guitartabs.cc/tabs/p/puddle_of_mudd/she_hates_me_tab_ver_2.html ]
 e|---------------------------|--------------------------------------------|
 B|---------------------------|--------------------------------------------|
 G|-----------3-----------5---|--------------------------------------------|
 D|-----3------------5--------|---Repeat-----------------------------------|
 A|---------1-----------------|--------------------------------------------|
 E|--1----0-----0--3---0------|--------------------------------------------|


     These are the chords played during the chorus:


      F      Bb     G      C

 e|---1-1----1-1----3-3----3-3---------------------------------------------|
 B|---1-1----3-3----3-3----5-5---------------------------------------------|
 G|---2-2----3-3----4-4----5-5---------------------------------------------|
 D|---3-3----3-3----5-5----5-5---------------------------------------------|
 A|---3-3----1-1----5-5----3-3---------------------------------------------|
 E|---1-1----1-1----3-3----3-3---------------------------------------------|


    That's it! A fairly easy song.
Comments