Puddle Of Mudd - She Hates Me Chords & Tabs

 

She Hates Me Chords & Tabs

Puddle Of Mudd Chords & Tabs

Version: 12 Type: Tab 0 ratings
1 star 2 stars 3 stars 4 stars 5 stars
comments

She Hates Me Tab

   
-------------------------------------------------------------------------------
			     She Hates Me - puddle of mudd
-------------------------------------------------------------------------------

By:zero
standard tunning:EADGBe
standard tunning:bass: EADG
Played with distortion

guitar 1:intro/verse(well the first few)[played clean]
e|--------------------------------------------|
B|--------------------------------------------|
G|---1-------2-------3----------4-------------|
D|--------------------------------------------|
A|---------0---0-----------2-2-----2----------|
E|-0----0---------2-----2---------------------|

Guitar 2: verse[distorted, and maybe with a little chorus]
e|--------------------------------------------|
B|--------------------------------------------|
G|----------2-2-2-2-----------4-4-4-4--4-6p-4-|
D|-2-2-2-2-----------4-4-4-4------------------|
A|--------------------------------------------|
E|--------------------------------------------|
[ Tab from: http://www.guitartabs.cc/tabs/p/puddle_of_mudd/she_hates_me_tab_ver_12.html ]
Guitar 1:chorus
e|------------------------------------|
B|------------------------------------|
G|----------2-2-2-2-----------4-4-4-4-|
D|-2-2-2-2--2-2-2-2--4-4-4-4--4-4-4-4-|
A|-2-2-2-2--0-0-0-0--4-4-4-4--2-2-2-2-|
E|-0-0-0-0-----------2-2-2-2----------|

Guitar 2:chorus
e|------------------------------------|
B|------------------------------------|
G|----------------------------4-4-4-4-|
D|-2-2-2-2--7-7-7-7--4-4-4-4--x-x-x-x-|
A|-x-x-x-x--x-x-x-x--x-x-x-x--2-2-2-2-|
E|-0-0-0-0--5-5-5-5--2-2-2-2----------|

Guitar 1:solo/played with wah
e|----------5-5-5-5-----------7-7-7-7-|
B|-5-5-5-5--x-x-x-x--7-7-7-7--x-x-x-x-|
G|-x-x-x-x--2-2-2-2--x-x-x-x--4-4-4-4-|
D|-2-2-2-2-----------4-4-4-4----------|
A|------------------------------------|
E|------------------------------------|
  E5        A5       F#5       B5     

Guitar 2 plays the power chords below during solo., and just in case if 
you dont know how to play the choards, there the same as guitar 1's chorus.

Bass loop:played in different timming.
G|------------------------------------|
D|------------------------------------|
A|----------0-0-0-0-----------2-2-2-2-|
E|-0-0-0-0-----------2-2-2-2----------|

well, im pretty sure this is the whole song, any way i wont go into what 
should be played when stuff, its should all be here, just play. any way peace!

===============================================================================
Comments