Puddle Of Mudd - She Hates Me Chords & Tabs

 

She Hates Me Chords & Tabs

Puddle Of Mudd Chords & Tabs

Version: 11 Type: Tab 0 ratings
1 star 2 stars 3 stars 4 stars 5 stars
comments

She Hates Me Tab

   
She Hates Me-Puddle Of Mudd
Come Clean

Eb Tuning:
Eb Ab Gb Db Bb Eb


Intro:

Fig. 1

F           Bb        G        C

e--------------------------------------------
b--------------------------------------------
g-----2---------3--------4-------------5-----
d-----3---------3--------5-------------5-----
a--------0--1------0--------0--3----3-----0--
e-1-------------------3----------------------

Play Fig. 1 (throughout song)

met a girl, thought she was grand...

gtr. 1

e--------------------------------------------
b--------------------------------------------
g-----2---------3--------4-------------5-----
d-----3---------3--------5-------------5-----
a--------0--1------0--------0--3----3-----0--
e-1-------------------3----------------------

Fig. 2 (gtr. 2)
clean fills

e--------------------------------------------
b--------------------------------------------
g----------------------------------------5h7-
d--------------------------------------------
a--------------------------------------------
e--------------------------------------------

gtr. 1

e--------------------------------------------
b--------------------------------------------
g-----2---------3--------4-------------5-----
d-----3---------3--------5-------------5-----
a--------0--1------0--------0--3----3-----0--
e-1-------------------3----------------------

gtr. 2

e--------------------------------------------
b--------------------------------------------
g-5--------------------------------------5h7-
d--------------------------------------------
a--------------------------------------------
e--------------------------------------------

gtr. 1

e--------------------------------------------
b--------------------------------------------
g-----2---------3--------4-------------5-----
d-----3---------3--------5-------------5-----
a--------0--1------0--------0--3----3-----0--
e-1-------------------3----------------------

gtr. 2
[ Tab from: http://www.guitartabs.cc/tabs/p/puddle_of_mudd/she_hates_me_tab_ver_11.html ]
e--------------------------------------------
b--------------------------------------------
g-5--------------------------------------5h7-
d--------------------------------------------
a--------------------------------------------
e--------------------------------------------

gtr. 1

e--------------------------------------------
b--------------------------------------------
g-----2---------3--------4-------------5-----
d-----3---------3--------5-------------5-----
a--------0--1------0--------0--3----3-----0--
e-1-------------------3----------------------

gtr. 2

e--------------------------------------------
b--------------------------------------------
g-5--------7----------7--5-------------------
d---------------------------7--5-------------
a--------------------------------------------
e--------------------------------------------

Chorus: Fig. 1

gtr. 3

e-1---1---------------3--3-------------------
b-1---1-----3---3-----3--3-----5-----5--5----
g-2---2-----3---3-----4--4-----5-----5--5----
d-3---3-----3---3-----5--5-----5-----5--5----
a-3---3--x--1---1--x--5--5--x--3-----3--3--x-
e-1---1--x---------x--3--3--x--------------x-

Verse 2: w/ Fig. 1

e-1-1-1-1---------3-3-3-----------1-1-1-1---------3-3-3-----------
b-1-1-1-1-3-3-3-3-3-3-3-5-5-5-5-5-1-1-1-1-3-3-3-3-3-3-3-5-5-5-5-5-
G-2-2-2-2-3-3-3-3-4-4-4-5-5-5-5-5-2-2-2-2-3-3-3-3-4-4-4-5-5-5-5-5-
d-3-3-3-3-3-3-3-3-5-5-5-5-5-5-5-5-3-3-3-3-3-3-3-3-5-5-5-5-5-5-5-5-
a-3-3-3-3-1-1-1-1-5-5-5-3-3-3-3-3-3-3-3-3-1-1-1-1-5-5-5-3-3-3-3-3-
e-1-1-1-1---------3-3-3-----------1-1-1-1---------3-3-3-----------

Chorus:

Guitar Solo:

e-----------------------------------------------------------------
b-----------------------------------------------------------------
g---------3-3-3-3---3---5--5b--5~~--------3-3-3-3-4---4-5~~--5-5~-
d-3-3-3-3--------/5---5-----------3-3-3-3-----------5-------------
a-----------------------------------------------------------------
e-----------------------------------------------------------------

e-----------------------------------------------------------------
b-----------------------------------------------------------------
g----------15151515---15--17b~--1717~~----------15151515---16--17b
d-15151515----------17--17-------------15151515----------17--17---
a-----------------------------------------------------------------
e-----------------------------------------------------------------

thatís all



trevor jones
timmy91199@yahoo.ca
Comments