Puddle Of Mudd - She Hates Me Chords & Tabs

 

She Hates Me Chords & Tabs

Puddle Of Mudd Chords & Tabs

Version: 10 Type: Tab 0 ratings
1 star 2 stars 3 stars 4 stars 5 stars
comments

She Hates Me Tab

She Hates Me 
By: Puddle Of Mudd
                        
e|-------------------------------------------------------|
B|-------------------------------------------------------| 
G|-----1---------2-------------3------------------4------| 
D|-------------------------------------------------------| 
A|------------0---------------------0--2--2--------------| 
E|--0-----4-----------4---2----------------------------4-  X6
               
 e|------------------------------------------------------| 
B|-------------------------------------------------------| 
G|--4h6p4--1----------2----------3-------------4---------| 
D|-------------------------------------------------------| 
A|-------------------0------------------0--2--2----------| 
E|----------------4----------4--2---------------------4--| X4
            
 e|------------------------------------------------------| 
B|-------------------------------------------------------| 
G|--4h6p4--1--6--2--6--3--1------------------------------| 
D|---------------------------------4---------------------| 
A|-------------------------------------------------------| 
E|-------------------------------------------------------|
 
 e|------------------------------------------------------|
B|-------------------------------------------------------| 
G|-----1---------2---------3-------------4---------------| 
D|-------------------------------------------------------| 
A|------------0----------------0--2--2-------------------| 
E|--0-----4---------4--2--------------------4------------|X4

 e|------------------------------------------------------|
B|-------------------------------------------------------| 
G|--4h6p4--1---------2---------3-------------4-----------| 
D|-------------------------------------------------------| 
A|-------------------0----------------0--2--2------------| 
E|----------------4---------4--2-------------------------|X3


 
e|------------------------------------------------------|
B|------------------------------------------------------| 
G|--4h6p4--1--6--2--6--3--1-----------------------------| 
D|---------------------------------4--------------------| 
A|------------------------------------------------------| 
E-------------------------------------------------------|
[ Tab from: http://www.guitartabs.cc/tabs/p/puddle_of_mudd/she_hates_me_tab_ver_10.html ]
 e|----------------------------------------------------|
B|-----------------------------------------------------| 
G|--4h6p4----------------------------------------------| 
D|-----------------------------------------------------| 
A|-------------0-0-0-0----------2-2-2-2----------------| 
E|--0-0-0-0------------2-2-2---------------------------|   X4

e|-------------------------------------------------------|
B|-------------------------------------------------------| 
G|-------------------------------------------------------| 
D|-------------------------------------------------------| 
A|-------------0-0-0-0-----------2-2-2-2-----------------| 
E|--0-0-0-0-------------2-2-2----------------------------|   X4

 e|------------------------------------------------------|
B|-------------------------------------------------------| 
G|-------------------------------------------------------| 
D|-------------------------------------------------------| 
A|-------------0-0-0-0-----------2-2-4-2-----------------| 
E|--0-0-0-0-------------2-4-2----------------------------|

 e|------------------------------------------------------|
B|-------------------------------------------------------| 
G|-------------------------------------------------------| 
D|-------------------------------------------------------| 
A|-------------0-0-0-0--1-1-1--2-2-2-2-------------------| 
E|--0-0-0-0----------------------------------------------|

 e|------------------------------------------------------|
B|-------------------------------------------------------| 
G|-------------------------------------------------------| 
D|-------------2-2-2-2-----------4-4-4-4-----------------| 
A|--2-2-2-2--0-0-0-0--4-6-4--2-2-2-2---------------------|
E|--0-0-0-0-------------2-4-2----------------------------|  X2





 e|-------------------------------------------------|
B|--------------------------------------------------| 
G|--------------------------------------------------| 
D|--------------------------------------------------| 
A|-------------0-0-0-0-----------2-2-2-2------------| 
E|--0-0-0-0-------------2-2-2-----------------------|

 e|--------------------------------------------------|
B|---------------------------------------------------| 
G|---------------------------------------------------| 
D|---------------------------------------------------| 
A|---------------------------------------------------| 
E|--0-0-0--------------------------------------------|
      (Let ring)

 e|---------------------------------------------------|
B|----------------------------------------------------| 
G|----------------------------------------------------| 
D|----------------------------------------------------| 
A|-----------0-0-0-----------2-2-2-2------------------| 
E|--0-0-0-----------2-2-2-----------------------------|      X5  (chorus pedal)
Comments