Puddle Of Mudd - She Hates Me Solo Chords & Tabs

 

She Hates Me Solo Chords & Tabs

Puddle Of Mudd Chords & Tabs

Version: 1 Type: Tab 0 ratings
1 star 2 stars 3 stars 4 stars 5 stars
comments

She Hates Me Solo Tab

solo


-----------------------------------------]
-------------------------------BU--------]
----------3-3-3-3----3----5----5(7)-5~~~-]
--3-3-3-3----------5----5----------------]
-----------------------------------------]
-----------------------------------------]

--------------------------------------------]
--------------------------------BU-----S----]
----------3-3-3-3----4-4-4-5~~--5(7)--5-14--]
--3-3-3-3-----------------------------------]
--------------------------------------------]
--------------------------------------------]
[ Tab from: http://www.guitartabs.cc/tabs/p/puddle_of_mudd/she_hates_me_solo_tab.html ]
------------------------------------BU 1/4-----------]
--------------------15-15-----15-----17-----17-17-17-]
--------15----15-15-15-15-----15-----17-----17-17-17-]
--15-15-15-15--------------17-----17-----------------]
-----------------------------------------------------]
-----------------------------------------------------]
                                      Grad. 
-------------------------------------BU 1/4--------------]
--------------15-15-15-15------15--15--17-----17-17-(18)-]
--------------15-15-15-15------15--15--17-----17-17-(19)-]
--15-15-15-15---------------17-----17--------------------]
---------------------------------------------------------]
---------------------------------------------------------]
Comments