Puddle Of Mudd - Life On Display Chords & Tabs

 

Life On Display Chords & Tabs

Puddle Of Mudd Chords & Tabs

Version: 1 Type: Tab 0 ratings
1 star 2 stars 3 stars 4 stars 5 stars
comments

Life On Display Tab

   
Band- Puddle Of Mudd
Album- Away From Me

1.AWAY FROM ME

Standard tuning eccept drop low E to C#

------------------------------------------------------------------------------|
----------2\-0-0------------5\-4--0----------2\-0-0---------------------------|
-33333333---3-3---33333333----3--3--33333333---3-3---33333333-3b-3b-3b--------|
------------------------------------------------------------------------------|
------------------------------------------------------------------------------|
------------------------------------------------------------------------------|
 Chorus

------------------------------------------------------------------------------|
------------------------------------------------------------------------------|
-3-3-3-3-3-3------------------------------------------------------------------|
-3-3-3-3-3-3---2-2-2-2--------------------------------------------------------|
-1-1-1-1-1-1---2-2-2-2----4-4-4-4-4-4-4-4-4-----------------------------------|
---------------3-3-3-3----0-0-0-0-0-0-0-0-0-----------------------------------|
 Verse

-------------------------------------------------------1----------------------|
---2----------2-------------2--------2-------2---4---4---------2--------2-----|
-3---3------3---3---------3---3----3---3---1---1---1---------3---3----3---3---|
------------------------------------------------------------------------------|
------------------------------------------------------------------------------|
------------------------------------------------------------------------------|


------------------------------------------------------------------1-----------|
---2-------2-------2---4---4--2--------2-------2--------2---4---4-------------|
-3---3---3---3---1---1---1-----------3---3---3---3----1---1---1---------------|
------------------------------------------------------------------------------|
------------------------------------------------------------------------------|
------------------------------------------------------------------------------|
 Chorus

------------------------------------------------------------------------------|
------------------------------------------------------------------------------|
-3-3-3-3-3-3------------------------------------------------------------------|
-3-3-3-3-3-3-----2-2-2-2---------------------------------x-4------------------|
-1-1-1-1-1-1-----2-2-2-2-----4-4-4-4-4-4-4-4-4--------------------------------|
-----------------3-3-3-3-----0-0-0-0-0-0-0-0-0--------------------------------|
 Bridge

------------------------------------------------------------------------------|
------------------------------------------------------------------------------|
-3-3-3-3-3-3------6-6-6-6-----------------------------------------------------|
-1-1-1-1-1-1------6-6-6-6----6-6-6-6----1-1-----------------------------------|
-1-1-1-1-1-1------4-4-4-4----6-6-6-6----1-1-----------------------------------|
-----------------------------7-7-7-7----2-2-----------------------------------|


------------------------------------------------------------------------------|
------------------------------------------------------------------------------|
------------------------------------------------------------------------------|
-6-6-6-6-6-6-6-6----6-6-6-6-6-6-6-6-----1-1-1-1-1-1-1-1-----1-1-1-1-1-1-1-1---|
-6-6-6-6-6-6-6-6----6-6-6-6-6-6-6-6-----1-1-1-1-1-1-1-1-----1-1-1-1-1-1-1-1---|
-7-7-7-7-7-7-7-7----7-7-7-7-7-7-7-7-----2-2-2-2-2-2-2-2-----2-2-2-2-2-2-2-2---|

2.HEEL OVER HEAD

Intro (clean)
e------------------------------------|
b------------------------------------|
g-4444444444444-222------------------|
d-4444444444444-222-4444444444444444-|
a-2222222222222-000-4444444444444444-|
E-------------------2222222222222222-|

distorted part of chorus:
e------------------------------------|
b------------------------------------|
g-4444444444444-222------------------|
d-4444444444444-222-4444444444444444-|
a-2222222222222-000-4444444444444444-|
E-------------------2222222222222222-|

3.NOTHING LEFT TO LOSE

Don't Know

4.CHANGE MY MIND

Eb  ------0------------0-------------0----------0-------------|
Bb  -------0--------------------------0----------0------------|
F#  ----1------------8--8---8------7----------6---------3-----|
C#  ---2-2----------9-9----9-9----8-8--------7-7-------4-4----|  5X
G#  ----------------------9-----------------------------------|
Eb  --0------------7-------------6----------5---------2-------|

----0--0---0-0-0-0-0-0----0----0---0--0--0--0--0--0-----0----0----0--0--0--0--0--0----|
----0--0---0-0-0-0-0-0----0----0---0--0--0--0--0--0-----0----0----0--0--0--0--0--0----|
----1--1---1-1-1-1-1-1----11--11---11-11-11-11-11-11----9----9----9--9--9--9--9--9----|
----2--2---2-2-2-2-2-2----12--12---12-12-12-12-12-12----10--10----10-10-10-10-10-10---|
----2--2---2-2-2-2-2-2----12--12---12-12-12-12-12-12----10--10----10-10-10-10-10-10---|
----0--0---0-0-0-0-0-0----10--10---10-10-10-10-10-10----8----8----8--8--8--8--8--8----|

----0--0---0-0-0-0-0-0----0--0---0-0-0-0-0-0----0--0---0-0-0-0-0-0----|
----0--0---0-0-0-0-0-0----0--0---0-0-0-0-0-0----0--0---0-0-0-0-0-0----|
----8--8---8-8-8-8-8-8----6--6---6-6-6-6-6-6----4--4---4-4-4-4-4-4----|
----9--9---9-9-9-9-9-9----7--7---7-7-7-7-7-7----5--5---5-5-5-5-5-5----|
----9--9---9-9-9-9-9-9----7--7---7-7-7-7-7-7----5--5---5-5-5-5-5-5----|
----7--7---7-7-7-7-7-7----5--5---5-5-5-5-5-5----3--3---3-3-3-3-3-3----|

----0--0----0---0----0---0--0--0--0-----0---0----0---0--0--0--0----0---0----0---0--0--0--0----|
----0--0----0---0----0---0--0--0--0-----0---0----0---0--0--0--0----0---0----0---0--0--0--0----|
----1--1----11--11---11--11-11-11-11----10--10---10--10-10-10-10---9---9----9---9--9--9--9----|
----2--2----12--12---12--12-12-12-12----11--11---11--11-11-11-11---10--10---10--10-10-10-10---|
----2--2----12--12---12--12-12-12-12----11--11---11--11-11-11-11---10--10---10--10-10-10-10---|
----0--0----10--10---10--10-10-10-10----9---9----9---9--9--9--9----8---8----8---8--8--8--8----|

------0----------0-------------0----------0--------------|
-------0------------------------0----------0-------------|
----1----------8--8---8------7----------6---------3------|
---2-2--------9-9----9-9----8-8--------7-7-------4-4-----|  6X
--------------------9------------------------------------|
--0----------7-------------6----------5---------2--------|

----0--0---0-0-0-0-0-0----0---0----0--0--0--0--0---0----0---0----0--0--0--0--0--0----|
----0--0---0-0-0-0-0-0----0---0----0--0--0--0--0---0----0---0----0--0--0--0--0--0----|
----1--1---1-1-1-1-1-1----11--11---11-11-11-11-11-11----9---9----9--9--9--9--9--9----|
----2--2---2-2-2-2-2-2----12--12---12-12-12-12-12-12----10--10---10-10-10-10-10-10---|
----2--2---2-2-2-2-2-2----12--12---12-12-12-12-12-12----10--10---10-10-10-10-10-10---|
----0--0---0-0-0-0-0-0----10--10---10-10-10-10-10-10----8---8----8--8-8---8--8--8----|

----0--0---0-0-0-0-0-0----0--0---0-0-0-0-0-0----0--0---0-0-0-0-0-0----|
----0--0---0-0-0-0-0-0----0--0---0-0-0-0-0-0----0--0---0-0-0-0-0-0----|
----8--8---8-8-8-8-8-8----6--6---6-6-6-6-6-6----4--4---4-4-4-4-4-4----|
----9--9---9-9-9-9-9-9----7--7---7-7-7-7-7-7----5--5---5-5-5-5-5-5----|
----9--9---9-9-9-9-9-9----7--7---7-7-7-7-7-7----5--5---5-5-5-5-5-5----|
----7--7---7-7-7-7-7-7----5--5---5-5-5-5-5-5----3--3---3-3-3-3-3-3----|

----0--0----0---0----0---0--0--0--0-----0---0----0---0--0--0--0-----0---0----0---0--0--0--0----|
----0--0----0---0----0---0--0--0--0-----0---0----0---0--0--0--0-----0---0----0---0--0--0--0----|
----1--1----11--11---11--11-11-11-11----10--10---10--10-10-10-10----9---9----9---9--9--9--9----|
----2--2----12--12---12--12-12-12-12----11--11---11--11-11-11-11----10--10---10--10-10-10-10---|
----2--2----12--12---12--12-12-12-12----11--11---11--11-11-11-11----10--10---10--10-10-10-10---|
----0--0----10--10---10--10-10-10-10----9---9----9---9--9--9--9-----8---8----8---8--8--8--8----|

-------------------------------------------------------------------------------------|
-------------------------------------------------------------------------------------|
-------------------------------------------------------------------------------------|
----14-14-14-14-14-14-14-14----12-12-12-12-12-12-12-12----14-14-14-14-14-14-14-14----|
----14-14-14-14-14-14-14-14----12-12-12-12-12-12-12-12----14-14-14-14-14-14-14-14----|
----12-12-12-12-12-12-12-12----10-10-10-10-10-10-10-10----12-12-12-12-12-12-12-12----|

----0--0--0--0--0----0---0---0-------0----0---0---0------0----0---0---0------|
----0--0--0--0--0----0---0---0-------0----0---0---0------0----0---0---0------|
----10-10-10-10-10---10--10--10------9----9---9---9------9----9---9---9------|
----11-11-11-11-11---11--11--11------10---10--10--10-----10---10--10--10-----|
----11-11-11-11-11---11--11--11------10---10--10--10-----10---10--10--10-----|
----9--9--9--9--9----9---9---9-------8----8---8---8------8----8---8---8------|

----------------------------------------------------------------------------------------------------|
----------------------------------------------------------------------------------------------------|
----------------------------------------------------------------------------------------------------|
----14-----------12-----------10-----------9------------7----------5----------2---------11----------|
----14---8X------12----8X-----10---8X------9----8X------7---8X-----5------8X--2---8X----11---8X-----|
----12-----------10-----------8------------7------------5----------3----------0----------9----------|

----0---0----0---0--0--0--0-------0--0---0--0-0-0-0----|
----0---0----0---0--0--0--0-------0--0---0--0-0-0-0----|
----9---9----9---9--9--9--9-------8--8---8--8-8-8-8----|
----10--10---10--10-10-10-10------9--9---9--9-9-9-9----|
----10--10---10--10-10-10-10------9--9---9--9-9-9-9----|
----8---8----8---8--8--8--8-------7--7---7--7-7-7-7----|

----0--0----0--0--0-0-0-0----0--0----0--0--0-0-0-0---      ---0--0----0--0--0-0-0-0----0----0----|
----0--0----0--0--0-0-0-0----0--0----0--0--0-0-0-0---      ---0--0----0--0--0-0-0-0----0----0----|
----1--1----8--8--8-8-8-8----7--7----6--6--6-6-6-4---      ---1--1----8--8--8-8-8-8----7----6----|
----2--2----9--9--9-9-9-9----8--8----7--7--7-7-7-5---  6X  ---2--2----9--9--9-9-9-9----8----7----|
----2--2----9--9--9-9-9-9----8--8----7--7--7-7-7-5---      ---2--2----9--9--9-9-9-9----8----7----|
----0--0----7--7--7-7-7-7----6--6----5--5--5-5-5-3---      ---0--0----7--7--7-7-7-7----6----5----|

5.SPIN YOU AROUND

Intro :

--0--------0-----0-0-0---0------0-0-0--0----0-0-------------------------------|
--0--------0-----0-0-0---0------0-0-0--0----0-0-------------------------------|
--0--------0-----0-0-0---0------0-0-0--2----1-1-------------------------------|
--4--------4-----4-4-4---7------7-7-7--2----2-2-------------------------------|
--2--------2-----2-2-2---5------5-5-5--0----0-0-------------------------------|
--x--------x-----x-x-x---x------x-x-x--x----x-x-------------------------------|

(The verse uses these exact same power chords, but played with a quicker tempo. Just listen
to the song and do what you think is right)


Fill :

----------------------------------------------------|
----------------------------------------------------|
----------------------------------------------------|
----------------------------------------------------|
5-5-5-5-5-5-5-5-7-7-7-7-7-7-7-7-7-7-7-7-7-7-7-7-----|
3-3-3-3-3-3-3-3-5-5-5-5-5-5-5-5-5-5-5-5-5-5-5-5-----|

(Palm mute this, and then take it back to the intro chords...)


Chorus :

--------------------------------------------------------------------|
--------------------------------------------------------------------|
----------222222-----------222222-----------222222-----------222222-|
----------222222-----------222222-----------222222-----------222222-|
5-5-5-5-5-000000-2-2-2-2-2-000000-5-5-5-5-5-000000-2-2-2-2-2-000000-|
3-3-3-3-3--------0-0-0-0-0--------3-3-3-3-3--------0-0-0-0-0--------|


--------------------------------------------------------------------|
--------------------------------------------------------------------|
--------------------------------------------------------------------|
--------------------------------------------------------------------|
-5-5-5-5-5-5-5-5-7-7-7-7-7-7-7-7-7-7-7-7-7-7-7-7--------------------|
-3-3-3-3-3-3-3-3-5-5-5-5-5-5-5-5-5-5-5-5-5-5-5-5--------------------|

6.ALREADY GONE

Don't Know

7.THINK
[ Tab from: http://www.guitartabs.cc/tabs/p/puddle_of_mudd/life_on_display_tab.html ]
Verse 1
Guitar 1 (acoustic)
*Note that Wes mostly strums the top strings, and just strums the lower strings on the downbeat
        E                   G
Eb -----0-------------------3-------------------------------------------------------|
Bb -----0-------------------3-------------------------------------------------------|
Gb -----1-------------------0-------------------------------------------------------|
Db -----2-------------------0-------------------------------------------------------|
Ab -----2-------------------2-------------------------------------------------------|
Eb -----0-------------------3-------------------------------------------------------|


Guitar 2
*Note that Paul comes in and plays each note once when Wes is singing �drink, drink, drink)
        E	          G
Eb ----------------------------------------------------------------------------------|
Bb ----------------------------------------------------------------------------------|
Gb ----------------------------------------------------------------------------------|
Db -----2----------5-----------------------------------------------------------------|
Ab -----2----------5-----------------------------------------------------------------|
Eb -----0----------3-----------------------------------------------------------------|

Pre Chorus
Guitar 1 (acoustic)
*Note that both guitars are playing constant eighth notes
        E                   G                  C               Am
Eb -----0-------------------3------------------0---------------0---------------------|
Bb -----0-------------------3------------------1---------------0---------------------|
Gb -----1-------------------0------------------0---------------2---------------------|
Db -----2-------------------0------------------2---------------2---------------------|
Ab -----2-------------------2------------------3---------------0---------------------|
Eb -----0-------------------3--------------------------------------------------------|

Guitar 2
*Note that every note is palm muted
        E	          G          C        a
Eb ---------------------------------------------------------------------------------|
Bb ---------------------------------------------------------------------------------|
Gb ---------------------------5-----------------------------------------------------|
Db -----2----------5----------5--------7--------------------------------------------|
Ab -----2----------5----------3--------7--------------------------------------------|
Eb -----0----------3-------------------5--------------------------------------------|

Verse 2

Guitar 1 (acoustic)

        E                   G
Eb -----0-------------------3-------------------------------------------------------|
Bb -----0-------------------3-------------------------------------------------------|
Gb -----1-------------------0-------------------------------------------------------|
Db -----2-------------------0-------------------------------------------------------|
Ab -----2-------------------2-------------------------------------------------------|
Eb -----0-------------------3-------------------------------------------------------|

Guitar 2 (electric)
*Note that in Verse 2, Paul plays the 1st time only, when Wes is Singing it's gunna be alright!

        E	          G
Eb ---------------------------------------------------------------------------------|
Bb ---------------------------------------------------------------------------------|
Gb ---------------------------------------------------------------------------------|
Db -----2----------5----------------------------------------------------------------|
Ab -----2----------5----------------------------------------------------------------|
Eb -----0----------3----------------------------------------------------------------|

Pre Chorus

Guitar 1 (acoustic)
*Note that both guitars are playing constant eighth notes
        E                   G                  C               Am
Eb -----0-------------------3------------------0---------------0--------------------|
Bb -----0-------------------3------------------1---------------0--------------------|
Gb -----1-------------------0------------------0---------------2--------------------|
Db -----2-------------------0------------------2---------------2--------------------|
Ab -----2-------------------2------------------3---------------0--------------------|
Eb -----0-------------------3-------------------------------------------------------|

Guitar 2
*Note that every note is palm muted
        E	          G          C        a
Eb ---------------------------------------------------------------------------------|
Bb ---------------------------------------------------------------------------------|
Gb ---------------------------5-----------------------------------------------------|
Db -----2----------5----------5--------7--------------------------------------------|
Ab -----2----------5----------3--------7--------------------------------------------|
Eb -----0----------3-------------------5--------------------------------------------|

Chorus

Guitars 1 and 2 (acoustic and electric)

        C               Am
Eb -----0---------------0--------------------------|
Bb -----1---------------0--------------------------|
Gb -----0---------------2--------------------------|
Db -----2---------------2--------------------------|
Ab -----3---------------0--------------------------|
Eb  -----------------------------------------------|

Verse 3

Guitar 1 (acoustic)

        E                   G
Eb -----0-------------------3-------------------------------------------------------|
Bb -----0-------------------3-------------------------------------------------------|
Gb -----1-------------------0-------------------------------------------------------|
Db -----2-------------------0-------------------------------------------------------|
Ab -----2-------------------2-------------------------------------------------------|
Eb  ----0-------------------3-------------------------------------------------------|

Guitar 2 (electric)
*Note that in Verse 3, Paul plays the 1st time only, when Wes is Singing it's gunna be alright!

        E	          G
Eb ---------------------------------------------------------------------------------|
Bb ---------------------------------------------------------------------------------|
Gb ---------------------------------------------------------------------------------|
Db -----2----------5----------------------------------------------------------------|
Ab -----2----------5----------------------------------------------------------------|
Eb -----0----------3----------------------------------------------------------------|


Pre Chorus

Guitar 1 (acoustic)
*Note that both guitars are playing constant eighth notes
        E                   G                  C               Am
Eb -----0-------------------3------------------0---------------0--------------------|
Bb -----0-------------------3------------------1---------------0--------------------|
Gb -----1-------------------0------------------0---------------2--------------------|
Db -----2-------------------0------------------2---------------2--------------------|
Ab -----2-------------------2------------------3---------------0--------------------|
Eb -----0-------------------3-------------------------------------------------------|

Guitar 2
*Note that every note is palm muted
        E	          G          C        a
Eb ---------------------------------------------------------------------------------|
Bb ---------------------------------------------------------------------------------|
Gb ---------------------------5-----------------------------------------------------|
Db -----2----------5----------5--------7--------------------------------------------|
Ab -----2----------5----------3--------7--------------------------------------------|
Eb -----0----------3-------------------5--------------------------------------------|

Chorus

Guitars 1 and 2 (acoustic and electric)

        C               Am
Eb -----0---------------0--------------------------|
Bb -----1---------------0--------------------------|
Gb -----0---------------2--------------------------|
Db -----2---------------2--------------------------|
Ab -----3---------------0--------------------------|
Eb  -----------------------------------------------|

Then at the end it all ends on an E

Guitar 1 (acoustic)

        E
Eb -----0-----------|
Bb -----0-----------|
Gb -----1-----------|
Db -----2-----------|
Ab -----2-----------|
Eb -----0-----------|


Guitar 2 (electric)
        E
Eb -----------------|
Bb -----------------|
Gb -----------------|
Db -----2-----------|
Ab -----2-----------|
Eb -----0-----------|

8.CLOUD 9

Don't Know

9.BOTTOM

Don't Know

10.FREAK OF THE WORLD

Don't Know

11.SYDNEY

(Dropped D Tuning)


Verse

E|----------------|
B|----------------|
G|10---7----------|
D|10---7---10---5-|
A|8----5---10---5-|
D|---------10---5-|

Pre Chorus

E|---------|
B|---------|
G|5---7----|
D|5---7----|
A|3---5----|
D|---------|


Chorus

E|----------------|
B|----------------|
G|----------------|
D|5---10---7---9--|
A|5---10---7---9--|
D|5---10---7---9--|

12.TIME FLIES

Rhythym One:
d-------4p2---------3p2---------2------------6-|
B-----3-----3-----3-----3-----3---3--------6---|
G---2-----------2-----------0-------0----5-----|
D-0-----------3-----------2------------6-------|
A----------------------------------------------|
D----------------------------------------------|
End Rhythym One
You play that for awile as the intro
Then you strum these two chords during the prechorus
Just go between these chords until he starts singin "time flies"
Pre-Chor:
d---0---0---|
B---3---3---|  listen to the song
G---0---0---|  for how to play them
D---2---0---|  exactly
A---3---2---|
D-----------|

for the chorus you get to use the lower strings:
Chorus
d----------------|
B----------------| thats just the progression,
G----------------| but the timing is easy to figger out
D-6--5--0--3--2--|
A-6--5--0--3--2--|
D-6--5--0--3--2--|

once the chorus starts ("time flies")  start this
Rhythym Two:
d--------6-----------6-----------5-----------5-------|
B------6---6-------6---6-------6---6-------6---6-----|
G----5-------5---5-------5---4-------4---4-------4---|
D--6-----------6-----------5-----------5-------------|
A----------------------------------------------------|
D----------------------------------------------------|
cont..
d--------0-----------3-----------3p2---------2----------|
B------3---3-------3---3-------3-----3-----3---3--------|
G----2-------2---2-------2---2-----------0-------0------|
D--0-----------0-----------3-----------2----------------|
A-------------------------------------------------------|
D-------------------------------------------------------|
cont...
d--------6-----------6-----------5-----------5-------|
B------6---6-------6---6-------6---6-------6---6-----|
G----5-------5---5-------5---4-------4---4-------4---|
D--6-----------6-----------5-----------5-------------|
A----------------------------------------------------|
D----------------------------------------------------|
End Rhythym Two

now start strummin through these chords
d--0--0--0--0-|
B--3--3--3--3-| ill let you figger out the timing,
G--2--0--0--0-| but the progression sounds great almost
D--0--2--0--3-| no matter what you do to it, almost
A-----3--2--X-|
D-----------3-|
"one more pill..."
now go through the pre-chorus, then chorus then start this:
d--------6-----------6-----------5h6p5-----------5-----|
B------6---6-------6---6-------6------6-------6----6---|
G----5-------5---5-------5---4--------------4--------4-|
D--6-----------6-----------5--------------5------------|
A------------------------------------------------------|
D------------------------------------------------------|

d--------0-----------3-----------3p2-------2h3p2-------|
B------3---3-------3---3-------3---------3-------3-----|
G----2-------2---2-------2---2---------0-----------0---|
D--0-----------0-----------3---------2-----------------|
A------------------------------------------------------|
D------------------------------------------------------|

d--------6-----------6-----------5h6p5-----------5-----|
B------6---6-------6---6-------6-------6-------6---6---|
G----5-------5---5-------5---4---------------4-------4-|
D--6-----------6-----------5---------------5-----------|
A------------------------------------------------------|
D------------------------------------------------------|

this is where it starts rambling on at the end just mess around
and throw in radom riffs slowing down and speeding up as you feel
it can be a good thing not to sound like the original and throw
this in every now and then

just strum aroud these two chords
e--0--0--|
B--8--7--|
G--7--7--|
D--8--0--|
A--------|
D--------|
Comments