Puddle Of Mudd - Heel Over Head Chords & Tabs

 

Heel Over Head Chords & Tabs

Puddle Of Mudd Chords & Tabs

Version: 1 Type: Tab 0 ratings
1 star 2 stars 3 stars 4 stars 5 stars
comments

Heel Over Head Tab

song: heel over head
band: puddle of mudd
album: life on display

i have seen many tabs for this song but none of them are exactly correct.
most of the tabbers have this song in standard tunnig. however, puddle of mudd plays in 1/2 step down. 
[ Tab from: http://www.guitartabs.cc/tabs/p/puddle_of_mudd/heel_over_head_tab.html ]
this is the main chord progression throughout the whole song:
----------------------------------------------------------------------
----------------------------------------------------------------------
-5-5-5-5-5-5-5-5-5-5-5-5-5-5---3-3------------------------------------
-5-5-5-5-5-5-5-5-5-5-5-5-5-5---3-3---5-5-5-5-5-5-5-5-5-5-5-5----------
-3-3-3-3-3-3-3-3-3-3-3-3-3-3-0-1-1-0-5-5-5-5-5-5-5-5-5-5-5-5----------
-------------------------------------3-3-3-3-3-3-3-3-3-3-3-3----------

little part after (listen to song for timing)
-----------------
-----------------
-6-6-6-6/7-7-7-7-
-----------------
-----------------
-----------------

"...and i'm heel over head jet black skies spinnig around again..."
------------------3-----------------------------
-------------------3--------------3-------------
----------------5----5----------4---4-----------
--------------5--------3------5-------5--------- just listen to song and 
------------3------------3---------------------- repeat when necessary
----------------------------3-----------3-------

that's it. these riffs just repeat. all u need to do is add distortion and palm mute when necessary.
again just listen to the song.
Comments